Моя Любовь На Пятом Этаже

Official version
Вступление + первый куплет:
                               F                      Gm                     Am 
E||-------------------------|----------------------|----------------------|----------------------|
B||-------------------------|----------------------|----------------------|----------------------|
G||-------------------------|--2----2--2------2----|--3----3--3------3----|--5----5--5------5----|
D||----5--5--5--5--5--5--5--|--3----3--3------3----|--5----5--5------5----|--7----7--7------7----|
A||----3--3--3--3--3--3--3--|--3----3--3------3----|--5----5--5------5----|--7----7--7------7----|
E||-------------------------|--1----1--1------1----|--3----3--3------3----|--5----5--5------5----|
  Dm                     Gm                     A                      Dm 
----------------------|----------------------|----------------------|-------5--5----------|
----------------------|----------------------|----------------------|--6----6--6----------|
--7----7--7------7----|--3----3--3------3----|----------------------|--7----7--7----------|
--7----7--7------7----|--5----5--5------5----|--7----7--7------7----|--7----7--7----------|
--5----5--5------5----|--5----5--5------5----|--7----7--7------7----|--5----5--5----------|
----------------------|--3----3--3------3----|--5----5--5------5----|---------------------|
  F                     Bb                    Bbm                   F 
-------5--5----------|-------6--6----------|-------6--6----------|-------------------------|
--6----6--6----------|-------6--6----------|-------6--6----------|-------------------------|
--5----5--5----------|--7----7--7----------|--6----6--6----------|--2----------------------|
--7----7--7----------|--8----8--8----------|--8----8--8----------|--3----------------------|
--8----8--8----------|--8----8--8----------|--8----8--8----------|--3----3--3--3--3--3--3--|
---------------------|--6----6--6----------|--6----6--6----------|--1----1--1--1--1--1--1--|
  Gm                         Am                         Dm                         Gm 
--------------------------|--------------------------|--------------------------|--------------------------|
--------------------------|--------------------------|--------------------------|--------------------------|
--------------------------|--------------------------|--------------------------|--------------------------|
--------------------------|--------------------------|--7--7--7--7--7--7--7--7--|--------------------------|
--5--5--5--5--5--5--5--5--|--7--7--7--7--7--7--7--7--|--5--5--5--5--5--5--5--5--|--5--5--5--5--5--5--5--5--|
--3--3--3--3--3--3--3--3--|--5--5--5--5--5--5--5--5--|--------------------------|--3--3--3--3--3--3--3--3--|
  A                          Dm                    F                     Bb 
--------------------------|-------5--5----------|-------5--5----------|-------6--6----------|
--------------------------|-------6--6----------|-------6--6----------|-------6--6----------|
--------------------------|-------7--7----------|-------5--5----------|-------7--7----------|
--------------------------|--7----7--7----------|--7----7--7----------|-------8--8----------|
--7--7--7--7--7--7--7--7--|--5----5--5----------|--8----8--8----------|--8----8--8----------|
--5--5--5--5--5--5--5--5--|---------------------|---------------------|--6----6--6----------|
  Bbm 
-------6--6------6--6--|-------------------------|
-------6--6------6--6--|-------------------------|
-------6--6------6--6--|----5--5--5--2-----------|
-------8--8------8--8--|----------------5--3-----|
--8----8--8------8--8--|----------------------5--|
--6----6--6------6--6--|-------------------------|

Первый припев:
                        Gm     C         Am      Am                      Dm     Am        Dm 
E||------------------|----------------------|-------------------------|----------------------|
B||------------------|----------------------|-------------------------|----------------------|
G||------------------|---------5--5------5--|-------------------------|--7----------------7--|
D||------------------|--5------5--5------7--|----7--7--7--7--7--7--7--|--7------7--7------7--|
A||------------------|--5------3--3------7--|----7--7--7--7--7--7--7--|--5------7--7------5--|
E||------------------|--3----------------5--|----5--5--5--5--5--5--5--|---------5--5---------|
    Dm                      Gm                        Bb                        C           Bb       C 
-------------------------|-------------------------|-------------------------|---------------------------|----|
-------------------------|-------------------------|-------------------------|---------------------------|----|
----7--7--7--7--7--7--7--|-------------------------|-------------------------|---------------------------|----|
----7--7--7--7--7--7--7--|--5----5--5--5--5--5--5--|--8----8--8--8--8--8--8--|--10----10----8--8--8--10--|----|
----5--5--5--5--5--5--5--|--5----5--5--5--5--5--5--|--8----8--8--8--8--8--8--|--10----10----8--8--8--10--|----|
-------------------------|--3----3--3--3--3--3--3--|--6----6--6--6--6--6--6--|--8-----8-----6--6--6--8---|----|
  F       Dm        Bb    Bb     C           F      F 
-----------------------|-------------------------|----------------------------|
-----------------------|-------------------------|----------------------------|
--10------7--7---------|---------------------10--|--10----10----10----10--10--|
--10------7--7------8--|--8------10--10------10--|--10----10----10----10--10--|
--8-------5--5------8--|--8------10--10------8---|--8-----8-----8-----8---8---|
--------------------6--|--6------8---8-----------|----------------------------|
    C 
--------------------------------|
--------------------------------|
--------------------------------|
----10--10--10--10--10--10--10--|
----10--10--10--10--10--10--10--|
----8---8---8---8---8---8---8---|

Второй куплет (c второй половины):
     Dm                  Bb       C 
E||--5----------------|---------------------|--------------------------|--------------------------|
B||--6----------------|--6--------8---------|--6--6--------5--5--------|--6--6--------5--5--------|
G||--7----------------|--7--------9---------|--------5--5--------5--5--|--------5--5--------5--5--|
D||--7----------------|--8--------10--------|--------------------------|--------------------------|
A||--5----------------|--8--------10--------|--------------------------|--------------------------|
E||-------------------|--6--------8---------|--------------------------|--------------------------|
                                                        Gm                         A 
--------------------------|--------------------------|--------------------------|--------------------------|
--6--6--------5--5--------|--6--6--------5--5--------|--------------------------|--------------------------|
--------5--5--------5--5--|--------5--5--------5--5--|--------------------------|--------------------------|
--------------------------|--------------------------|--5--5--5--5--5--5--5--5--|--7--7--7--7--7--7--7--7--|
--------------------------|--------------------------|--5--5--5--5--5--5--5--5--|--7--7--7--7--7--7--7--7--|
--------------------------|--------------------------|--3--3--3--3--3--3--3--3--|--5--5--5--5--5--5--5--5--|
      Dm                   F                    Bb                   Bbm 
------5--------5----|------5--------5----|------6--------6----|------6--------6--6--|-------------------------|
------6--------6----|------6--------6----|------6--------6----|------6--------6--6--|-------------------------|
------7--------7----|------5--------5----|------7--------7----|------6--------6--6--|----5--5--5--2-----------|
--------------------|------7--------7----|------8--------8----|------8--------8--8--|----------------5--3-----|
--------------------|--------------------|--------------------|---------------------|----------------------5--|
--------------------|--------------------|--------------------|---------------------|-------------------------|

Второй, третий и последний припевы:
                        Gm     C         Am      Am                      Dm     Am        Dm 
E||------------------|----------------------|-------------------------|----------------------|
B||------------------|----------------------|-------------------------|----------------------|
G||------------------|---------5--5---------|-------------------------|--7----------------7--|
D||------------------|--5------5--5------7--|----7--7--7--7--7--7--7--|--7------7--7------7--|
A||------------------|--5------3--3------7--|----7--7--7--7--7--7--7--|--5------7--7------5--|
E||------------------|--3----------------5--|----5--5--5--5--5--5--5--|---------5--5---------|
    Dm                      Gm                        Bb                        C           Bb       C 
-------------------------|-------------------------|-------------------------|---------------------------|
-------------------------|-------------------------|-------------------------|---------------------------|
----7--7--7--7--7--7--7--|-------------------------|-------------------------|---------------------------|
----7--7--7--7--7--7--7--|--5----5--5--5--5--5--5--|--8----8--8--8--8--8--8--|--10----10----8--8--8--10--|
----5--5--5--5--5--5--5--|--5----5--5--5--5--5--5--|--8----8--8--8--8--8--8--|--10----10----8--8--8--10--|
-------------------------|--3----3--3--3--3--3--3--|--6----6--6--6--6--6--6--|--8-----8-----6--6--6--8---|
                                  в последнем припеве эти 2 такта повторяются
                                   F       Dm        Bb    Bb     C 
--------------------------------|-----------------------|-----------------------|
--------------------------------|-----------------------|-----------------------|
--------------------------------|--10------7--7---------|-----------------------|
----10--10--10--10--10--10--10--|--10------7--7------8--|--8------10--10--------|
----10--10--10--10--10--10--10--|--8-------5--5------8--|--8------10--10--------|
----8---8---8---8---8---8---8---|--------------------6--|--6------8---8---------|

Третий куплет:
     F                         Gm                         Am                         Dm 
E||-------------------------|--------------------------|--------------------------|--------------------------|
B||-------------------------|--------------------------|--------------------------|--------------------------|
G||-------------------------|--------------------------|--------------------------|--------------------------|
D||--3----------------------|--------------------------|--------------------------|--7--7--7--7--7--7--7--7--|
A||--3----3--3--3--3--3--3--|--5--5--5--5--5--5--5--5--|--7--7--7--7--7--7--7--7--|--5--5--5--5--5--5--5--5--|
E||--1----1--1--1--1--1--1--|--3--3--3--3--3--3--3--3--|--5--5--5--5--5--5--5--5--|--------------------------|
  Gm                         A                          Dm                  Bb       C 
--------------------------|--------------------------|--5----------------|---------------------|
--------------------------|--------------------------|--6----------------|------6--------8-----|
--------------------------|--------------------------|--7----------------|------7--------9-----|
--------------------------|--7--7--7--7--7--7--7--7--|--7----------------|------8--------10----|
--5--5--5--5--5--5--5--5--|--7--7--7--7--7--7--7--7--|--5----------------|------8--------10----|
--3--3--3--3--3--3--3--3--|--5--5--5--5--5--5--5--5--|-------------------|------6--------8-----|
  F                         Gm                        Am                        Dm 
-------------------------|-------------------------|-------------------------|-------------------------|
-------------------------|-------------------------|-------------------------|-------------------------|
--2----2--2--2--2--2--2--|--3----3--3--3--3--3--3--|--5----5--5--5--5--5--5--|--7----7--7--7--7--7--7--|
--3----3--3--3--3--3--3--|--5----5--5--5--5--5--5--|--7----7--7--7--7--7--7--|--7----7--7--7--7--7--7--|
--3----3--3--3--3--3--3--|--5----5--5--5--5--5--5--|--7----7--7--7--7--7--7--|--5----5--5--5--5--5--5--|
--1----1--1--1--1--1--1--|--3----3--3--3--3--3--3--|--5----5--5--5--5--5--5--|-------------------------|
  Gm                        A                         Dm                     F 
-------------------------|-------------------------|----------------------|----------------------|
-------------------------|-------------------------|--6----6----6----6----|--6----6----6----6----|
-------------------------|-------------------------|--7----7----7----7----|--5----5----5----5----|
--5----5--5--5--5--5--5--|--7----7--7--7--7--7--7--|--7----7----7----7----|--7----7----7----7----|
--5----5--5--5--5--5--5--|--7----7--7--7--7--7--7--|--5----5----5----5----|--8----8----8----8----|
--3----3--3--3--3--3--3--|--5----5--5--5--5--5--5--|----------------------|----------------------|
  Bb                     Bbm 
----------------------|-----------------------|-------------------------|
----------------------|-----------------------|-------------------------|
--7----7----7----7----|--6----6----6----6--6--|----5--5--5--2-----------|
--8----8----8----8----|--8----8----8----8--8--|----------------5--3-----|
--8----8----8----8----|--8----8----8----8--8--|----------------------5--|
--6----6----6----6----|--6----6----6----6--6--|-------------------------|

Соло:
E||---------------------------|--------------------------|-----------------------|-------------------------|
B||---------------------------|--------------------------|-----------------------|-------------------------|
G||---------------------------|--------------------------|--------7--------------|-----------------7-------|
D||---------------------7--8--|--10----10--10----7----8--|--10-------10----------|----7----8--10-------10--|
A||-----------7--8--10--------|--------------------------|-----------------------|-------------------------|
E||----8--10------------------|--------------------------|-----------------------|-------------------------|

------------------------|------------------------|---------------------------|---------------------10----||
------------------------|------------------------|------------------------8--|--8----10--10--------10----||
--8---7-----------------|------------------------|------------7--9---10------|---------------------------||
----------10----7----7--|--7---8-----------------|--7--8--10-----------------|---------------------------||
------------------------|----------10--------10--|---------------------------|---------------------------||
------------------------|------------------------|---------------------------|---------------------------||

© Авторские права на тексты, песни, видео и другую представленную информацию принадлежат правообладателям. Аккорды, табы, gtp и тексты песен взяты из открытых источников.
Возрастная категория сайта: 18+
Тексты некоторых песен могут содержать нецензурные выражения, брань.
© 2020 guitar-chords.ru