Official version

Вступление:
соло гитара №1
E||--5--------3------0----------------|------------------|----5--5--5--5----8----|--7---5---3--------|
B||-----------------------------------|------------------|-----------------------|-------------------|
G||-----------------------------------|------------------|-----------------------|-------------------|
D||-----------------------------------|------------------|-----------------------|-------------------|
A||-----------------------------------|------------------|-----------------------|-------------------|
E||-----------------------------------|------------------|-----------------------|-------------------|

--8--------7---7-10--8----------------|------------------|----0--0--0--0-------|--0----------------||
--------------------------------------|------------------|------------------1--|-------3--0--------||
--------------------------------------|------------------|---------------------|-------------------||
--------------------------------------|------------------|---------------------|-------------------||
--------------------------------------|------------------|---------------------|-------------------||
--------------------------------------|------------------|---------------------|-------------------||
соло гитара №2
E||--5--------3------0----------------|------------------|----5--5--5--5----8----|--7---5---3--------|
B||-----------------------------------|------------------|-----------------------|-------------------|
G||-----------------------------------|------------------|-----------------------|-------------------|
D||-----------------------------------|------------------|-----------------------|-------------------|
A||-----------------------------------|------------------|-----------------------|-------------------|
E||-----------------------------------|------------------|-----------------------|-------------------|

--5--------3---3-5--0----------------|------------------|----0--0--0--0-------|--0----------------||
-------------------------------------|------------------|------------------1--|-------3--0--------||
-------------------------------------|------------------|---------------------|-------------------||
-------------------------------------|------------------|---------------------|-------------------||
-------------------------------------|------------------|---------------------|-------------------||
-------------------------------------|------------------|---------------------|-------------------||
акустическая гитара
     F            G               Am                           Dm 
E||--1--1--1--1-1-3--3--3--3-3-|--5--5--5--5-5-5--5--5--5-5-|--5--5--5--5-5-5--5--5--5-5-|
B||--1--1--1--1-1-3--3--3--3-3-|--5--5--5--5-5-5--5--5--5-5-|--6--6--6--6-6-6--6--6--6-6-|
G||--2--2--2--2-2-4--4--4--4-4-|--5--5--5--5-5-5--5--5--5-5-|--7--7--7--7-7-7--7--7--7-7-|
D||--3--3--3--3-3-5--5--5--5-5-|--7--7--7--7-7-7--7--7--7-7-|--7--7--7--7-7-7--7--7--7-7-|
A||--3--3--3--3-3-5--5--5--5-5-|--7--7--7--7-7-7--7--7--7-7-|--5--5--5--5-5-5--5--5--5-5-|
E||--1--1--1--1-1-3--3--3--3-3-|--5--5--5--5-5-5--5--5--5-5-|--5--5--5--5-5-5--5--5--5-5-|
  G                            F            G               Am 
--3--3--3--3-3-3--3--3--3-3-|--1--1--1--1-1-3--3--3--3-3-|--5--5--5--5-5-5-5-5--5--5-5-|
--3--3--3--3-3-3--3--3--3-3-|--1--1--1--1-1-3--3--3--3-3-|--5--5--5--5-5-5-5-5--5--5-5-|
--4--4--4--4-4-4--4--4--4-4-|--2--2--2--2-2-4--4--4--4-4-|--5--5--5--5-5-5-5-5--5--5-5-|
--5--5--5--5-5-5--5--5--5-5-|--3--3--3--3-3-5--5--5--5-5-|--7--7--7--7-7-7-7-7--7--7-7-|
--5--5--5--5-5-5--5--5--5-5-|--3--3--3--3-3-5--5--5--5-5-|--7--7--7--7-7-7-7-7--7--7-7-|
--3--3--3--3-3-3--3--3--3-3-|--1--1--1--1-1-3--3--3--3-3-|--5--5--5--5-5-5-5-5--5--5-5-|
  F                            G 
--5--5--5--5-5-5--5--5--5-5-|--7---7---7---7--7--7---7---7---7--7--||
--6--6--6--6-6-6--6--6--6-6-|--8---8---8---8--8--8---8---8---8--8--||
--5--5--5--5-5-5--5--5--5-5-|--7---7---7---7--7--7---7---7---7--7--||
--7--7--7--7-7-7--7--7--7-7-|--9---9---9---9--9--9---9---9---9--9--||
--8--8--8--8-8-8--8--8--8-8-|--10--10--10--10-10-10--10--10--10-10-||
--5--5--5--5-5-5--5--5--5-5-|--7---7---7---7--7--7---7---7---7--7--||

Проигрыш №1 (перед первым куплетом):
соло-гитара
E||--8------8------10------10------|--12------12------12------12------|--13------13------12------12------|
B||-----10-----10------12------12--|------13------13------13------13--|------13------13------13------13--|
G||--------------------------------|----------------------------------|----------------------------------|
D||--------------------------------|----------------------------------|----------------------------------|
A||--------------------------------|----------------------------------|----------------------------------|
E||--------------------------------|----------------------------------|----------------------------------|

--10------10------8------8--7--|--8------8------10------10------|--12------12------12------12------|
------12------12-----10--------|-----10-----10------12------12--|------13------13------13------13--|
-------------------------------|--------------------------------|----------------------------------|
-------------------------------|--------------------------------|----------------------------------|
-------------------------------|--------------------------------|----------------------------------|
-------------------------------|--------------------------------|----------------------------------|

--13------13------13------13------|--15--15--15--15--15--15--15----||
------13------13------13------13--|--15--15--15--15--15--15--15----||
----------------------------------|--------------------------------||
----------------------------------|--------------------------------||
----------------------------------|--------------------------------||
----------------------------------|--------------------------------||
ритм-гитара
     F           G              Am                          Dm                          G 
E||--------------------------|---------------------------|---------------------------|---------------------------|
B||--------------------------|---------------------------|---------------------------|---------------------------|
G||--------------------------|---------------------------|--7--7--7--7--7--7--7--7-7-|---------------------------|
D||--3--3--3--3--5--5--5--5--|--7--7--7--7--7--7--7--7-7-|--7--7--7--7--7--7--7--7-7-|--5--5--5--5--5--5--5--5-5-|
A||--3--3--3--3--5--5--5--5--|--7--7--7--7--7--7--7--7-7-|--5--5--5--5--5--5--5--5-5-|--5--5--5--5--5--5--5--5-5-|
E||--1--1--1--1--3--3--3--3--|--5--5--5--5--5--5--5--5-5-|--5--5--5--5--5--5--5--5-5-|--3--3--3--3--3--3--3--3-3-|
  F           G              Am                         F                          G 
--------------------------|--------------------------|--------------------------|--------------------------------||
--------------------------|--------------------------|--------------------------|--------------------------------||
--------------------------|--------------------------|--5--5--5--5--5--5--5--5--|--7---7---7---7---7---7---7-----||
--3--3--3--3--5--5--5--5--|--7--7--7--7--7--7--7--7--|--7--7--7--7--7--7--7--7--|--9---9---9---9---9---9---9-----||
--3--3--3--3--5--5--5--5--|--7--7--7--7--7--7--7--7--|--8--8--8--8--8--8--8--8--|--10--10--10--10--10--10--10----||
--1--1--1--1--3--3--3--3--|--5--5--5--5--5--5--5--5--|--5--5--5--5--5--5--5--5--|--7---7---7---7---7---7---7-----||

Первый куплет:
ритм-гитара
E||--------------------------|--------------------------|--------------------------|------------------------------|
B||--------------------------|--------------------------|--------------------------|--------------------5флаж.----|
G||--------------------------|--------------------------|--------------------------|--------------------5флаж.----|
D||--2--2--2-----------------|--------------------------|--------------3--3--3-----|--------------------5флаж.----|
A||--3--3--3--0--2--2--2-----|--3--3--3--3--3--3--3-----|--0--0--0--0--5--5--5--0--|--2--2--2--2--2--2------------|
E||--------------3--3--3--0--|--5--5--5--5--5--5--5--0--|--1--1--1--0--------------|--3--3--3--3--3--3------------|
  C           G              Am                         F           Dm             G 
--------------------------|--------------------------|--------------------------|--------------||
--------------------------|--------------------------|--------------------------|--------------||
--5--5--5--5--------------|--------------------------|--------------7--7--7--7--|--------------||
--5--5--5--5--5--5--5--5--|--7--7--7--7--7--7--7--7--|--3--3--3--3--7--7--7--7--|--5--5--5--5--||
--3--3--3--3--5--5--5--5--|--7--7--7--7--7--7--7--7--|--3--3--3--3--5--5--5--5--|--5--5--5--5--||
--3--3--3--3--3--3--3--3--|--5--5--5--5--5--5--5--5--|--1--1--1--1--5--5--5--5--|--3--3--3--3--||

Припевы (первый и второй):
соло-гитара
E||--8------8------10------10------|--12------12------12------12------|--13------13------12------12------|
B||-----10-----10------12------12--|------13------13------13------13--|------13------13------13------13--|
G||--------------------------------|----------------------------------|----------------------------------|
D||--------------------------------|----------------------------------|----------------------------------|
A||--------------------------------|----------------------------------|----------------------------------|
E||--------------------------------|----------------------------------|----------------------------------|

--10------10------8------8--7--|--8------8------10------10------|--12------12------12------12------|
------12------12-----10--------|-----10-----10------12------12--|------13------13------13------13--|
-------------------------------|--------------------------------|----------------------------------|
-------------------------------|--------------------------------|----------------------------------|
-------------------------------|--------------------------------|----------------------------------|
-------------------------------|--------------------------------|----------------------------------|

--13------13------13------13------|--15------15------15------15----|--8------8------10------10------|
------13------13------13------13--|------15------15------15--------|-----10-----10------12------12--|
----------------------------------|--------------------------------|--------------------------------|
----------------------------------|--------------------------------|--------------------------------|
----------------------------------|--------------------------------|--------------------------------|
----------------------------------|--------------------------------|--------------------------------|

--12------12------12------12------|--13------13------12------12------|--10------10------8------8--7--|
------13------13------13------13--|------13------13------13------13--|------12------12-----10--------|
----------------------------------|----------------------------------|-------------------------------|
----------------------------------|----------------------------------|-------------------------------|
----------------------------------|----------------------------------|-------------------------------|
----------------------------------|----------------------------------|-------------------------------|
                                ...второй припев заканчивается тут |
--8------8------10------10------|--12------12------12------12------|--13------13------13------13------|
-----10-----10------12------12--|------13------13------13------13--|------13------13------13------13--|
--------------------------------|----------------------------------|----------------------------------|
--------------------------------|----------------------------------|----------------------------------|
--------------------------------|----------------------------------|----------------------------------|
--------------------------------|----------------------------------|----------------------------------|

--15----------------||
--15----------------||
--------------------||
--------------------||
--------------------||
--------------------||
ритм-гитара
     F           G              Am                          Dm                          G 
E||--------------------------|---------------------------|---------------------------|---------------------------|
B||--------------------------|---------------------------|---------------------------|---------------------------|
G||--------------------------|---------------------------|--7--7--7--7--7--7--7--7-7-|---------------------------|
D||--3--3--3--3--5--5--5--5--|--7--7--7--7--7--7--7--7-7-|--7--7--7--7--7--7--7--7-7-|--5--5--5--5--5--5--5--5-5-|
A||--3--3--3--3--5--5--5--5--|--7--7--7--7--7--7--7--7-7-|--5--5--5--5--5--5--5--5-5-|--5--5--5--5--5--5--5--5-5-|
E||--1--1--1--1--3--3--3--3--|--5--5--5--5--5--5--5--5-5-|--5--5--5--5--5--5--5--5-5-|--3--3--3--3--3--3--3--3-3-|
  F           G              Am                         F                          G 
--------------------------|--------------------------|--------------------------|----------------------------------|
--------------------------|--------------------------|--------------------------|----------------------------------|
--------------------------|--------------------------|--5--5--5--5--5--5--5--5--|--7---7---7---7---7---7---7---7---|
--3--3--3--3--5--5--5--5--|--7--7--7--7--7--7--7--7--|--7--7--7--7--7--7--7--7--|--9---9---9---9---9---9---9---9---|
--3--3--3--3--5--5--5--5--|--7--7--7--7--7--7--7--7--|--8--8--8--8--8--8--8--8--|--10--10--10--10--10--10--10--10--|
--1--1--1--1--3--3--3--3--|--5--5--5--5--5--5--5--5--|--5--5--5--5--5--5--5--5--|--7---7---7---7---7---7---7---7---|
  F           G              Am                          Dm                          G 
--------------------------|---------------------------|---------------------------|---------------------------|
--------------------------|---------------------------|---------------------------|---------------------------|
--------------------------|---------------------------|--7--7--7--7--7--7--7--7-7-|---------------------------|
--3--3--3--3--5--5--5--5--|--7--7--7--7--7--7--7--7-7-|--7--7--7--7--7--7--7--7-7-|--5--5--5--5--5--5--5--5-5-|
--3--3--3--3--5--5--5--5--|--7--7--7--7--7--7--7--7-7-|--5--5--5--5--5--5--5--5-5-|--5--5--5--5--5--5--5--5-5-|
--1--1--1--1--3--3--3--3--|--5--5--5--5--5--5--5--5-5-|--5--5--5--5--5--5--5--5-5-|--3--3--3--3--3--3--3--3-3-|
                  ...второй припев заканчивается тут |
  F           G              Am                         Dm                          G 
--------------------------|--------------------------|---------------------------|--------------------------------||
--------------------------|--------------------------|---------------------------|--------------------------------||
--------------------------|--------------------------|--7--7--7--7--7--7--7--7-7-|--7---7---7---7---7---7---7-----||
--3--3--3--3--5--5--5--5--|--7--7--7--7--7--7--7--7--|--7--7--7--7--7--7--7--7-7-|--9---9---9---9---9---9---9-----||
--3--3--3--3--5--5--5--5--|--7--7--7--7--7--7--7--7--|--5--5--5--5--5--5--5--5-5-|--10--10--10--10--10--10--10----||
--1--1--1--1--3--3--3--3--|--5--5--5--5--5--5--5--5--|--5--5--5--5--5--5--5--5-5-|--7---7---7---7---7---7---7-----||

Второй куплет:
ритм-гитара
E||--------------------------|--------------------------|--------------------------|---------------------------|
B||--------------------------|--------------------------|--------------------------|---------------------------|
G||--------------------------|--------------------------|--------------------------|---------------------------|
D||--5--5--5--5--------------|--------------------------|--------------7--7--7--7--|---------------------------|
A||--3--3--3--3--5--5--5--5--|--7--7--7--7--7--7--7--7--|--3--3--3--3--5--5--5--5--|--5--5--5--5--5--5--5--5-5-|
E||--------------3--3--3--3--|--5--5--5--5--5--5--5--5--|--1--1--1--1--------------|--3--3--3--3--3--3--3--3-3-|
  C           G              Am                         F           Dm             G 
--------------------------|--------------------------|--------------------------|--------------------------||
--------------------------|--------------------------|--------------------------|--------------------------||
--5--5--5--5--------------|--------------------------|--------------7--7--7--7--|--------------------------||
--5--5--5--5--5--5--5--5--|--7--7--7--7--7--7--7--7--|--3--3--3--3--7--7--7--7--|--5--5--5--5--5--5--5--5--||
--3--3--3--3--5--5--5--5--|--7--7--7--7--7--7--7--7--|--3--3--3--3--5--5--5--5--|--5--5--5--5--5--5--5--5--||
--3--3--3--3--3--3--3--3--|--5--5--5--5--5--5--5--5--|--1--1--1--1--5--5--5--5--|--3--3--3--3--3--3--3--3--||

Соло (после второго припева):
соло-гитара
E||---------------------|---------------------|---------------------|---------------------|---------------------|
B||---------------------|---------------------|---------------------|---------------------|---------------------|
G||---------------------|---------------------|---------------------|---------------------|---------------------|
D||--3------2------0----|----------------0----|--5------3------2----|---------0------2----|--3------2------0----|
A||---------------------|--2------3-----------|---------------------|--3------------------|---------------------|
E||---------------------|---------------------|---------------------|---------------------|---------------------|

---------------------|---------------------|-------------------------|---------------------|---------------------|
---------------------|---------------------|-------------------------|---------------------|---------------------|
---------------------|---------------------|-------------------------|---------------------|---------------------|
----------------0----|---------------------|----------------------2--|--3------2------0----|----------------0----|
--2------3-----------|--3------------3--5--|--3------0-0-0--2--3-----|---------------------|--2------3-----------|
---------------------|---------------------|-------------------------|---------------------|---------------------|

---------------------|---------------------|---------------------|---------------------|----------------------|
---------------------|---------------------|---------------------|---------------------|----------------------|
---------------------|---------------------|---------------------|---------------------|----------------------|
--5------7------9----|---------0------2----|--3------2------0----|----------------0----|-------------------0--|
---------------------|--3------------------|---------------------|--2------3-----------|--3-------------3-----|
---------------------|---------------------|---------------------|---------------------|-------------3--------|

-------------------------|---------------------|---------------------|---------------------|---------------------|
-------------------------|---------------------|---------------------|---------------------|---------------------|
-------------------------|---------------------|---------------------|---------------------|---------------------|
----------------------2--|--3------------2--0--|------------------0--|--5------3------2----|---------------0--2--|
--3------0-0-0--2--3-----|---------------------|--2------------3-----|---------------------|--3------------------|
-------------------------|---------------------|---------------------|---------------------|---------------------|

---------------------|---------------------|------||
---------------------|---------------------|------||
---------------------|---------------------|------||
--3------2------3----|--5------7------9----|--10--||
---------------------|---------------------|------||
---------------------|---------------------|------||
ритм-гитара
акустическая гитара ...
     Dm                            G                             C 
E||--5--5-5-5--5--5-5-5--5--5-5-|--3--3-3-3--3--3-3-3--3--3-3-|--0--0-0-0--0--0-0-0--0--0-0-|
B||--6--6-6-6--6--6-6-6--6--6-6-|--3--3-3-3--3--3-3-3--3--3-3-|--1--1-1-1--1--1-1-1--1--1-1-|
G||--7--7-7-7--7--7-7-7--7--7-7-|--4--4-4-4--4--4-4-4--4--4-4-|--0--0-0-0--0--0-0-0--0--0-0-|
D||--7--7-7-7--7--7-7-7--7--7-7-|--5--5-5-5--5--5-5-5--5--5-5-|--2--2-2-2--2--2-2-2--2--2-2-|
A||--5--5-5-5--5--5-5-5--5--5-5-|--5--5-5-5--5--5-5-5--5--5-5-|--3--3-3-3--3--3-3-3--3--3-3-|
E||--5--5-5-5--5--5-5-5--5--5-5-|--3--3-3-3--3--3-3-3--3--3-3-|-----------------------------|
                                                                ... акустическая гитара | |  отсюда электрогитара  |
  Am                            Dm                            G                             C 
--0--0-0-0--0--0-0-0--0--0-0-|--5--5-5-5--5--5-5-5--5--5-5-|--3--3-3-3--3--3-3-3--3--3-3-|--------------------------|
--1--1-1-1--1--1-1-1--1--1-1-|--6--6-6-6--6--6-6-6--6--6-6-|--3--3-3-3--3--3-3-3--3--3-3-|--------------------------|
--2--2-2-2--2--2-2-2--2--2-2-|--7--7-7-7--7--7-7-7--7--7-7-|--4--4-4-4--4--4-4-4--4--4-4-|--5--5--5--5--5--5--5--5--|
--2--2-2-2--2--2-2-2--2--2-2-|--7--7-7-7--7--7-7-7--7--7-7-|--5--5-5-5--5--5-5-5--5--5-5-|--5--5--5--5--5--5--5--5--|
--0--0-0-0--0--0-0-0--0--0-0-|--5--5-5-5--5--5-5-5--5--5-5-|--5--5-5-5--5--5-5-5--5--5-5-|--3--3--3--3--3--3--3--3--|
-----------------------------|--5--5-5-5--5--5-5-5--5--5-5-|--3--3-3-3--3--3-3-3--3--3-3-|--3--3--3--3--3--3--3--3--|
  Am                         Dm                        G                         C 
--------------------------|-------------------------|-------------------------|-------------------------|
--------------------------|-------------------------|-------------------------|-------------------------|
--------------------------|--7--------7--------7----|-------------------------|--5--------5--------5----|
--7--7--7--7--7--7--7--7--|--7--7--7--7--7--7--7----|--5--------5--------5----|--5--5--5--5--5--5--5----|
--7--7--7--7--7--7--7--7--|--5--5--5--5--5--5--5----|--5--5--5--5--5--5--5----|--3--3--3--3--3--3--3----|
--5--5--5--5--5--5--5--5--|-------------------------|--3--3--3--3--3--3--3----|-------------------------|
  Am                        Dm                        G                          C 
-------------------------|-------------------------|--------------------------|--------------------------|
-------------------------|-------------------------|--------------------------|--------------------------|
-------------------------|--7--------7--------7----|--------------------------|--5--5--5--5--5--5--5--5--|
--7--------7--------7----|--7--7--7--7--7--7--7----|--5--------5--------5--5--|--5--5--5--5--5--5--5--5--|
--7--7--7--7--7--7--7----|--5--5--5--5--5--5--5----|--5--5--5--5--5--5--5--5--|--3--3--3--3--3--3--3--3--|
--5--5--5--5--5--5--5----|-------------------------|--3--3--3--3--3--3--3--3--|--3--3--3--3--3--3--3--3--|
  Am                         Dm                         G                          C 
--------------------------|--------------------------|--------------------------|--------------------------|
--------------------------|--------------------------|--------------------------|--------------------------|
--------------------------|--7--7--7--7--7--7--7--7--|--------------------------|--5--5--5--5--5--5--5--5--|
--7--7--7--7--7--7--7--7--|--7--7--7--7--7--7--7--7--|--5--5--5--5--5--5--5--5--|--5--5--5--5--5--5--5--5--|
--7--7--7--7--7--7--7--7--|--5--5--5--5--5--5--5--5--|--5--5--5--5--5--5--5--5--|--3--3--3--3--3--3--3--3--|
--5--5--5--5--5--5--5--5--|--------------------------|--3--3--3--3--3--3--3--3--|--3--3--3--3--3--3--3--3--|
  Am                         Dm                         G                          C 
--------------------------|--------------------------|--------------------------|-----||
--------------------------|--------------------------|--------------------------|-----||
--------------------------|--7--7--7--7--7--7--7--7--|--------------------------|--5--||
--7--7--7--7--7--7--7--7--|--7--7--7--7--7--7--7--7--|--5--5--5--5--5--5--5--5--|--5--||
--7--7--7--7--7--7--7--7--|--5--5--5--5--5--5--5--5--|--5--5--5--5--5--5--5--5--|--3--||
--5--5--5--5--5--5--5--5--|--------------------------|--3--3--3--3--3--3--3--3--|--3--||

Последний припев играется так же, как и второй припев, a заканчивается вот так:
соло-гитара
E||--13------------12--13--|--15------13------12----|--------------------||
B||------------------------|------------------------|--13----------------||
G||------------------------|------------------------|--------------------||
D||------------------------|------------------------|--------------------||
A||------------------------|------------------------|--------------------||
E||------------------------|------------------------|--------------------||
ритм-гитара
     Dm                         G                          C 
E||--------------------------|--------------------------|-------------------||
B||--------------------------|--------------------------|-------------------||
G||--7--7--7--7--7--7--7--7--|--------------------------|--5----------------||
D||--7--7--7--7--7--7--7--7--|--5--5--5--5--5--5--5--5--|--5----------------||
A||--5--5--5--5--5--5--5--5--|--5--5--5--5--5--5--5--5--|--3----------------||
E||--5--5--5--5--5--5--5--5--|--3--3--3--3--3--3--3--3--|--3----------------||

© Авторские права на тексты, песни, видео и другую представленную информацию принадлежат правообладателям. Аккорды, табы, gtp и тексты песен взяты из открытых источников.
Возрастная категория сайта: 18+
Тексты некоторых песен могут содержать нецензурные выражения, брань.
© 2020 guitar-chords.ru