Tunning: E A D G B E

Intro

e|------0-------0-------0-------0---|
B|--0-------0-------0-------0-------|
G|-2---2---2---2---2---2---2---2----|
D|3---3---3---3---3---3---3---3-----|
A|----------------------------------|
E|----------------------------------|

e|------0-------0-------0-------0---|
B|--0-------0-------0-------0-------|
G|--0-------------------------------|
D|-2---2---2---2---2---2---2---2----|
A|3---3---3---3---3---3---3---3-----|
E|----------------------------------|

Verse

e|------0-------0-------0-------0---|
B|--0-------0-------0-------0-------|
G|-2---2---2---2---2---2---2---2----|
D|3---3---3---3---3---3---3---3-----|
A|----------------------------------|
E|--1-------------------------------|

e|------0-------0-------0-------0---|
B|--0-------0-------0-------0-------|
G|--0-------------------------------|
D|-2---2---2---2---2---2---2---2----|
A|3---3---3---3---3---3---3---3-----|
E|----------------------------------|

© Авторские права на тексты, песни, видео и другую представленную информацию принадлежат правообладателям. Аккорды, табы, gtp и тексты песен взяты из открытых источников.
Возрастная категория сайта: 18+
Тексты некоторых песен могут содержать нецензурные выражения, брань.
© 2020 guitar-chords.ru