#табулатура

    "Mata Leao"
A Lot to Learn

Normal Tuning.

RIFF 1:        e--------------------------------------------------------
B--------------------------------------------------------
G--7---------5-------------------------------------------
D--7----6----5----4--------------------------------------
A--5----6----3----4--------------------------------------
E-------4---------2--------------------------------------

RIFF 2:        e-----------------------------------------------------------
B-----------------------------------------------------------
G-----------------------------------------------------------
D--6p7--7--7------6p7--7--7------4p5--5--5------4p5--5--5---
A--6p7--7--7------6p7--7--5------4p5--5--5------4p5--5--5---
E--4p5--5--5------4p5--5--5------2p3--3--3------2p3--3--3---

RIFF 3:        e-----------------------------------------------------------
B-----------------------------------------------------------
G--7--7--7--7--------5--------------------------------------
D--7--7--7--7--5--5--5--3-----------------------------------
A--5--5--5--5--5--5--3--3-----------------------------------
E--------------3--3-----1-----------------------------------

STRUCTURE:
Intro:   Riff 1   x4
         Riff 2   x2   "You walk around, always screaming..."
Chorus:  Riff 1   x4   "Because you, you got a lot to learn..."
         Riff 2   x2   "All you do is bitch about the....."
Chorus:  Riff 1   x4   "Because you, you got a lot to learn..."
Solo:    Riff 3   x3    (played with solo)
         Riff 3   x4   "You live inside your fucked-up world.."
Chorus:  Riff 1   x4   "Because you, you got a lot to learn..."

I know little bits are missing, or incorrect. If you find
mistakes or think its different then let me know or post your
own.
How about people post a few more tabs for songs off the
Mata Leao Album.

LYRICS:
You walk around always screaming about how you're trying
to get your way,
But you should just keep your fucking fat mouth shut,
if you got nothing important to say.
Because you...You got a lot to learn.
All you do is bitch about the things in life that get you
down, You never care for nobody else,
If you saw how your life looks to me, I think you'd be
ashamed of yourself.
Because you...You got a lot to learn.
You live inside your fucked-up world, talking loud
with nothing to say, You got a lot to learn about your
life, because you can't keep on livingn this way.
Because you...You got a lot to learn.

© Авторские права на тексты, песни, видео и другую представленную информацию принадлежат правообладателям. Аккорды, табы, gtp и тексты песен взяты из открытых источников.
Возрастная категория сайта: 18+
Тексты некоторых песен могут содержать нецензурные выражения, брань.
© 2020 guitar-chords.ru