#табулатура

    
Retribution

         I (1x)               II (2x)
e:--------------------|--------------------------
B:--------------------|--------------------------
G:--------------------|--------------------------
D:2-____-2---2--___2--|-2-2-5-2-4-__-2-2-2-5-2-3-
A:0------0---0-----0--|-0-0-3-0-2----0-0-0-3-0-1-
E:--------------------|--------------------------
       III (4x)
------------------------------|
------------------------------|
------------------------------|
-2-xxxx-4-xx--2-xxxx-3-__-3-3-|
-0-xxxx-2-xx--0-xxxx-1----1-1-|
------------------------------|
               IV (4x)               V (4x)
e:-------------------------------|-------------|
B:-------------------------------|-------------|
G:---------------------10--------|-------------|
D:-------9-9-10-7-_-9---8-10-12--|-9-xxxx-9_-10|
A:-------7-7-8--5---7------8-10--|-7-xxxx-7--8-|
E:-------------------------------|-------------|
      VI (6x)
|-----------------------------------|
|-----------------------------------|
|-----------------------------------|
|---------------5-------------------|
|-5-4-3--5-4-3--3-5-4-3--5-4-3--2-3-|
|-3-2-1--3-2-1----3-2-1--3-2-1--0-1-|
VII (4x):
---
---
---
-------------5----|
-4-4-5-4--4--3--4-|
-2-2-3-2--2-----2-|

SONG STRUCTURE:
I,II,III,IV,V,IV,V,IV,V,VI,VII,VI,V,IV

© Авторские права на тексты, песни, видео и другую представленную информацию принадлежат правообладателям. Аккорды, табы, gtp и тексты песен взяты из открытых источников.
Возрастная категория сайта: 18+
Тексты некоторых песен могут содержать нецензурные выражения, брань.
© 2020 guitar-chords.ru