Bass

  Main riff/vocal/solo riff
||-----------------------------------------------------------
||-----------------------------------------------------------
||-0--0-0-0-0-0-0-2--2-2-2-2-2-5--5-5-5-5-5-5-0--0-0-0-2p0---
||---------------------------------------------------------3-

-------------------------------------------------------------
-------------------------------------------------------------
-0--0-0-0-0-0-0-2--2-2-2-2-2-2-5--5-5-5-5-5-5-12--12-12-12-12
-------------------------------------------------------------
         Don't you ever have to worry...
-------||----------------------------------------------------
-------||----------------------------------------------------
-12-12-||-------------------------0-0-0--0-0-0--0-0-0--0-0-0-
-------||-1-1-1-1-1-1-1-1-1-1-1-1----------------------------
don't you ever,never say die... 2x
||---------------------------------------------------------|-
||----------------5-5-5-5-5-3------------------5-5-5-5-3---|-
||------------3h5-------------5------------3h5-----------5-|-
||-3--3-3-3-3-------------------3--3-3-3-3-----------------|-
last time play
-------------------------------------------------------------
----------------5-5-5-5-5-17-17-17-17-17-17-17-17-17-17-17-17
------------3h5----------------------------------------------
-3--3-3-3-3--------------------------------------------------
                                      Middle part("don't you
-------------------------------------|--------------7--------
-17-17-17-17-17-17-17-17-17-17-17-17-|-5--5-5-5-7-9----------
-------------------------------------|----------------5--5--5
-------------------------------------|-----------------------
ever say die..")
-----------------7-------------------------------------------
----5--5-5-5-7-9---------------------------------------7--7--
--5----------------5--5--5--5--0--0--0--0--5--5--5--5--------
-------------------------------------------------------------
                               outro
------------------------------|------------------------------
7--7--------------------------|------------------------------
-----5h7-5h7-5h7--5h7-5h7-5h7-|-0--0----0--0----0--0----0--0-
------------------------------|--------------------


© Авторские права на тексты, песни, видео и другую представленную информацию принадлежат правообладателям. Аккорды, табы, gtp и тексты песен взяты из открытых источников.
Возрастная категория сайта: 18+
Тексты некоторых песен могут содержать нецензурные выражения, брань.
© 2020 guitar-chords.ru