Sabbath, Bloody Sabbath (1974)
A National Acrobat

Bass

Tune-down 1 1/2 steps low to high(C# F# B E)

||------------------------------------------------------------
||--------------------------------------7h9p7-----------------
||-5h7-7-7--7-5h7-5h7-10-9--9-5h7-7-7-5-------5---5---5-5h7-7-
||----------------------------------------------7---7---------
                                                   I am the
-------------------------------------------------||-----------
--------------------------------7h9p7------------||-2---2-5---
-7--7-5h7-5h7-10-9--9-5h7-7-7-5-------5---5---5--||-----------
----------------------------------------7---7----||-----------
world that hides...     Destruction of the empty...        You
-------------------7-9-|-----------------------------||-------
5-------7------7-9-----|---------------5----5-7----7-||-------
--5---5----5/7---------|-3----3-2----2----5------7---||---5h7-
-----------------------|----3------2-----------------||-7-----
gotta believe me                                 I'm talkin to
---------------------------------------|----------------------
------------5--------------------------|----------------------
----5h7-5h7---7-5---5h7----------------|-------5h7-----5h7-5h7
--7---------------7--------------------|-5-6-7-------7--------
you...                          4x
------------------------------||----------------------------||
-5----------------------------||-------------87---7-5---5--||
---7-5---5h7------------------||-7---7-5---5----------------||
-------7----------------------||----------------------------||
                            2x
---------------------------|----------------------------------
---------------------------|----------------------------------
---------------------------|-5h7-7-7-7-7-7-7-5h7-7-7-7-7-7-7-5
-7-7-7-7-7-7-7-7-7-7-7-7-7-|----------------------------------

--------------------------------------------------------------
-------------------------------5h7-7-7-7-7-7-7-5h7-7-7-7-7-7-7
h7-7-7-7-7-7-7-5h7-7-7-7-7-7-7--------------------------------
--------------------------------------------------------------
                                   2x
---------------------------------||---------------------------
-5h7-7-7-7-7-7-7-5h7-7-7-7-7-7-7-||-7h9--9-7h9-7--------------
---------------------------------||--------------9-7-5--5-5--5
---------------------------------||---------------------------

------------------------------------|-------------------------
-----7h9--9-7h9-7-------------------|-------------------------
-4-5--------------9-7-5--5-5--5-4-5-|-------------------------
------------------------------------|--7--------------7-7---

--------------------------------------------------------------
--------------------------------------------------------------
--------------------------------------------------------------
-----7-7----------7-7----------7-------------7----------7
                            2x
--------------------------|-----------------------------------
--------------------------|-7-7-7-7-7-7-----------------------
--------------------------|-------------5-5-5-5-5-5/7--7-7-7-7
------------7-------------|-----------------------------------

------------------------------------------------|-------------
-------7-7-7-7-7-7------------------------------|-------------
-7-7/9-------------5-5-5-5-5-5/7--7-7-7-7-7-7/9-|-5--4--5--4--
------------------------------------------------|-------------

-----------------------------||-------------------------------
-----------------------------||-------------------------------
5--4--5--4--5--4--5--4--5--4-||-2-2-3-3-4-4-5-5-6-6-7-7-8-8-9-
-----------------------------||-------------------------------

------------------||h=hammer-on p=pull-off
------------------||/=slide up  =slide down
-9-10-10-11-11-12-||
------------------||


© Авторские права на тексты, песни, видео и другую представленную информацию принадлежат правообладателям. Аккорды, табы, gtp и тексты песен взяты из открытых источников.
Возрастная категория сайта: 18+
Тексты некоторых песен могут содержать нецензурные выражения, брань.
© 2020 guitar-chords.ru