Master Of Reality (1971)
After Forever

Tune down 1 1/2 steps
|-----------------------------------------------------------
|-----------------------------------------------------------
|-----------------------------------------------------------
|-11-9-7-9-9-7-2-0-2-2-2-0-11-9-7-9-9/-11-9-7-9-9/----------
|--0-0-0-0-0-0-0-0-0-0-0-0--0-0-0-0-0---0-0-0-0-0-----------
|-----------------------------------------------------------

|----------------------------------------------------------
|----------------------------------------------------------
|--7/9-9-9-9---9/12-12-12-12---7/9-9-9-9-------------------
|--7/9-9-9-9---9/12-12-12-12---7/9-9-9-9-------------------
|-x5/7-7-7-7-x-7/10-10-10-10-x-5/7-7-7-7----5-5-5-5-(5)p4--
|-----------------------------------------0-3-3-3-3-(3)p2--

|------------------------------
|------------------------------
|------------------------------
|-5--5--5---5---3--3--83--5---
|-5--5--5h7-7p5-3--3--83--5---
|------------------------------

|------------------------------
|------------------------------
|------------------------------
|-7--7--7---7---5--5-105--7---
|-7--7--7h9-9p7-5--5-105--7---
|------------------------------

|----------------------------------------------------------
|----------------------------------------------------------
|----------------------------------------------------------
|----------7--7-------------------7--7---------------------
|---------------5h6p5---5--------------5h6p5---5-----------
|-3-4-5--5------------8---8--5--5------------8-------------

Solo:        
|----------------------------------------------------------
|----------------------------------------------------------
|------------------------------7~--------------------------
|---------------9---------7--9----9p7-9--------------------
|---------7-8-9---7---7-9----------------------------------
|-5/7-7-10-------------------------------------------------

|---------------------------------------7----7---------------
|---------------------------------7---10------10-7-----------
|-----------------------------7-9---7--------------9^^9-8----
|-----------9-----------7-8-9--------------------------------
|-----7-8-9---7---7-8-9--------------------------------------
|-7-10-------------------------------------------------------

|--------------------------10p7-7-------------------------------
|----10------10-10-10p7--10-------/12-12---12-12p10-------------
|-/11--9-7-/11----------9---------------11---------11-11p9------
|----------------------------------------------------------11-12
|---------------------------------------------------------------
|---------------------------------------------------------------

|-----------------------------------------------------------
|-------7-10--7-10--7-10--7-10--7-10--7-10--7-10--7-10------
|----9^-----9^----9^----9^----9^----9^----9^----9^----------
|-12--------------------------------------------------------
|-----------------------------------------------------------
|-----------------------------------------------------------

|--------------------
|--------------------
|-9^p7---9-----7-----
|-----9-----9--------
|--------------------
|--------------------


© Авторские права на тексты, песни, видео и другую представленную информацию принадлежат правообладателям. Аккорды, табы, gtp и тексты песен взяты из открытых источников.
Возрастная категория сайта: 18+
Тексты некоторых песен могут содержать нецензурные выражения, брань.
© 2020 guitar-chords.ru