|------------------------------------------------------------------
|------------------------------------------------------------------
|----8--8-8-8--------7--7-7-7----8--8-8-8--------7--7-7-7----------
|----9--9-9-9--------7--7-7-7----9--9-9-9--------7--7-7-7----------
|--9-9--9-9-9---(7)--7--7-7-7--9-9--9-9-9---(7)--7--7-7-7----------
|--7------------(7)------------7------------(7)--------------------

|------------------------------------------------------------------
|------------------------------------------------------------------
|-----------7-7-7p6-----------------------------------------(X 2)--
|--9----9-----------9-9p7----7-------9----9------7-----------------
|--9----9-----------------9-----9----9----9--7h9---97-7-7p5---5---
|--7----7----------------------------7----7------------------7-----

Verse:        
|------------------------------------------------------------------
|------------------------------------------------------------------
|------------------------------------------------------------------
|------5h7p5-5h7-----------5h7p5------(X 2)------------------------
|--------------------------------5h7-------------------------------
|--5-8-----------------5-8-----------------------------------------

|------------------------
|------------------------
|------------------------
|------------------------
|-5--5----5h6p5----------
|-------8-------8-5------

|------------------------------7-----------
|------------------------------10^---------
|---------7~~~---------------------
|-7/9------------------7/9-----------------
|-7/9------------------7/9-----------------
|-5/7------------------5/7-----------------

Solo:        
|---------------7--------------------------------------------------
|-10^--10^--10^---10-7---7-10-7-7-/---------10-10-12-12^-12^-12^--
|----------------------9----------------9/11-----------------------
|------------------------------------------------------------------
|------------------------------------------------------------------
|------------------------------------------------------------------

|-----------------7-----7----------------------------------
|12-10----------7---10^---10-7-----------------------------
|------119-7-9----------------9^p7-9p7--7-----------------
|--------------------------------------9---9p7-------7-----
|----------------------------------------------9-7h9-------
|----------------------------------------------------------

|-----7--------7--------------------------------------7----
|---7-----10^----10-7------------------10-----------7------
|-9^------------------9^p7-9-9^p7-9/11----119-7-9^--------
|----------------------------------------------------------
|----------------------------------------------------------
|----------------------------------------------------------

|----------------------------------------------------------
|-10p7--------------7-10p7---------------------------------
|------9-9p7---7-9^--------9-9p7---------------------------
|------------9-------------------9-9p7---7/9---------------
|--------------------------------------9-------------------
|----------------------------------------------------------

|----------------------------------------------------------
|-----------------------------------------7----------------
|----------------------------------------------------------
|-6/76/76/76/76-------------6h7p6h7p6---7/9------------
|-------------------9--9-9-9-------------------------------
|----------------------------------------------------------

back to first riff

© Авторские права на тексты, песни, видео и другую представленную информацию принадлежат правообладателям. Аккорды, табы, gtp и тексты песен взяты из открытых источников.
Возрастная категория сайта: 18+
Тексты некоторых песен могут содержать нецензурные выражения, брань.
© 2020 guitar-chords.ru