Black Sabbath (1970)
Black Sabbath

Bass

w/out vocals                                 w/ vocals
||-------------------------------------------||--------------------
||-----------5-------------------------------||--------------------
||---------------4--4-4-4--4-4-4--4-4-4-4-4/-||-----------4--4-4-4-
||-----3-------------------------------------||--3----3------------

                         guitars and bass come back in  solo
------------------||----------------------------||-----------------
------------------||----------------------------||-----------------
--4-4-4--4-4-4-4--||--10--10-10--10-10-10-10-10-||-10--10-10-10--10
------------------||----------------------------||-----------------

-------------------------------------------------------------------
-------------------------------------------------------------------
-10-10--10-10-10--10--8--8-8-8--8-8-8--8-8-8-8--7--7-7-7--7-7-7--7-
-------------------------------------------------------------------

                                         solo ends 4x
----------------------------------||-------------------------------
----------------------------------||-------------------------------
-7-7-7--6--6-6-6--6-6-6--6-6-6-6--||-10-10-10-10-10-10-10-10-10-10-
----------------------------------||-------------------------------

--------------------------------||---------------------------------
--------------------------------||---------------------------------
-10-10--8-8-8-8-8-8-8-8-8-8-8-8-||-10--10-10-10-10--10-10-10--8--8-
--------------------------------||---------------------------------

-----------------------------------------||         KEY
-----------------------------------------||    =slide down
-8-8-8--8-8-8--10-----------10--8--------||    /=slide up
-----------------------------------10---||


© Авторские права на тексты, песни, видео и другую представленную информацию принадлежат правообладателям. Аккорды, табы, gtp и тексты песен взяты из открытых источников.
Возрастная категория сайта: 18+
Тексты некоторых песен могут содержать нецензурные выражения, брань.
© 2020 guitar-chords.ru