#табулатура

    Volume 4 (1972)
Cornucopia

Bass
tune-down 1 1/2 steps low to high(C# F# B E)

  Heavy intro-riff...do a couple of times then finesh w/ this  To
||-------------------------------|---------------------------||-----
||-------------------------------|---------------------------||-----
||----------------8--8--7-8------|-7-8-----7-8-----7-8-------||-7-7-
||-0---/7-6-7-6-7-----------6-7--|-----6-7-----6-7-----6-7---||-----
much in the truth they say...                           1st x
-----9---------9------------------9---------9---------||------------
-7h9-------7h9----------------7h9-------7h9-----------||------------
-------7-7-------5-5-5-5--7-7-------7-7-------5-5-5-5-||-5-----5--5-
------------------------------------------------------||------------
                                                      2nd x Your go-
------------------------------------------------------||------------
------------------------------------------------------||------------
--7-7-10-9-7---7-7-10-9-5---7-7-10-9-7---7-7-10-9-5---||-5----------
------------------------------------------------------||----5-5h7-7-
nna go insane...          drums & bass re-enter
-------------------------||-------------/7---7-5----7-5-------------
-------------------------||-/7---7-5---5----------7-----7-5---/7---7
--------5----------------||-----------------------------------------
-5-7------5-5h7-7-5-7--||-----------------------------------------
                            This is the bluesy/groovy riff
------/7---7-5----5-------||----------------------------------------
-5---5----------7---7-5---||-7-7--5-7-7--5-7-7--5------5-7-7--5-7-7-
-----------------------7--||-----------------------7----------------
--------------------------||----------------------------------------
                 I don't know what's been happening...
--------------||----------------------------------------------------
-5-7-7--5-----||-7--7-7-7--7--7-7-7--7--7-7-7--7-5--5-5-5--5--5-5-5-
-----------7--||----------------------------------------------------
--------------||----------------------------------------------------

----7b(8)-5--||Piece the song together, it's got a lot of parts but
-5-----------||you'll get it.
-------------||/=slide up     b=bend  h=hammer-on
-------------||\=slide down ( )=bend to this note

© Авторские права на тексты, песни, видео и другую представленную информацию принадлежат правообладателям. Аккорды, табы, gtp и тексты песен взяты из открытых источников.
Возрастная категория сайта: 18+
Тексты некоторых песен могут содержать нецензурные выражения, брань.
© 2020 guitar-chords.ru