Heaven And Hell (1980)
Die Young

Bass

Bass tab by Andre Couto (aka "Andre The Wizard (murder in the rue morgue)")
note: "*"s are used to represent the same note X times (listen to the song).
Tune down 1/2 step (Eb)
G-----------------------------------------------------------------------
D------------5--7--5--4-----------------------5--4-----------5--7--5----
A---7*-------------------7*-------3-----5-----------7*------------------
E-----------------------------------------------------------------------
                             gather the wind...
G------------------------||---------------------------------------------
D---4--------5--4--------||-----------------------5--4--------5--7------
A------7*----------7--5--||--7*-------3*----5*----------7*--------------
E------------------------||---------------------------------------------
                                   chain the sun...
G------------------------------||---------------------------------------
D---5--4--------5--4-----------||-----------------------5--4------------
A---------7*----------7--5-----||--7*-------3*----5*----------7*--------
E------------------------------||---------------------------------------
                    behind a smile...
G---------------||------------------------------------------------------
D---------------||-----------------------5--4--------5--7--5--4---------
A---3*----5*----||--7*-------3*----5*----------7*----------------7*-----
E---------------||------------------------------------------------------
                              life's fantasy...
G------9--7---------------||--------------------------------------------
D------------9--7---------||-----------------------5--4-----------------
A------------------10--9--||--7*-------3*----5*----------7*----3*-------
E-------------------------||--------------------------------------------
                                       so live for today...
G---------9--7---------------------||------------------------9--7-------
D---------------9--7--9--7---------||---------------7--9--7--------9--7-
A---7*----------------------10--9--||--10-----5-------------------------
E----------------------------------||-----------------------------------

G-----------------------------------------------------7--9--7-----------
D-----------------------------------------------7--9-----------9--7-----
A---10--9-----3-----5-----7-----9--10-----5-----------------------------
E-----------------------------------------------------------------------
                                                      die young...
G------------------------------------------------||---11h12-----9--9--||
D------------------------------------------------||-------------------||
A---10--9--7--9--7-------------------10--9---/7--||-------------------||
E-------------------10--7-----7--10--------------||-------------------||

G-----------9--12--11--||--12--11--7--||
D----------------------||-------------||
A----------------------||-------------||
E--5h7h8h9-------------||-------------||
   ^^^^^^^
   This is probably wrong, but kinda works
    die young, gonna die young...        * someone stopped... *
G---12--11-----------------------------||---12--9--11-------------||
D--------------------------------------||-------------------------||
A-------------------------10--9--5--7--||------------------5---7--||
E--------------5h7--8------------------||-------------------------||
                                         * note:
                                           Geezer does not actually
 along with guitar                         play this part, (at least I
G----------||-------------||               can't hear it), but it
D----------||-------------||               sounds better if you play it.
A--5--7--7||--10--12--12||
E----------||-------------||

G-----------------------||-------------||-------------------------||
D---------5--4----------||-------------||-----------5--4----------||
A---2--3--------5--7--7||--10--12--12||--2--3-----------5--7--7||
E-----------------------||-------------||--------3----------------||

G----------------------------------------------------||------------
D----------------------5--4/7-----9p11--9--7---------||------------
A--10--12--122--3----------------------------10--9--||------------
E-------------------3--------------------------------||--5--7------
                                  die young!!! (yeah this is hard)
G----------------|| back to    G----------------------------------------
D----------------|| main       D--------5-----7--5--4--------5-----7----
A---7--10--9--7--|| riffs,     A--7--7-----7-----------7--7-----7-------
E----------------|| etc.       E----------------------------------------
            1.------       2. this is played once during the ending--
           |        |     |   (not sure if it's correct though)      |
G---7--9-|----------||  |--/11--9--7--9--7--9--7---------------------||
D---------|----------||  |-------------------------9--7--9--7--5------||
A---------|-3*----5*-||  |--------------------------------------------||
E---------|----------||  |--------------------------------------------||
Phew! Enjoy. Geezer Butler rules!!!


© Авторские права на тексты, песни, видео и другую представленную информацию принадлежат правообладателям. Аккорды, табы, gtp и тексты песен взяты из открытых источников.
Возрастная категория сайта: 18+
Тексты некоторых песен могут содержать нецензурные выражения, брань.
© 2020 guitar-chords.ru