|------------------------------------|--------------------------|--------
|------------------------------------|--------------------------|--------
|------------------------------------|--------------------------|--------
|------------------------------------|--------------------------|--------
|----------2h3--2~-----------------|-------2~--1~~~--0------|--------
|----0--0-------------0--2h3--2~~~---|----0-----------------3---|--------

     Fig 3                 Fig 4
|--------------|------------12--12--12--12--12--|-----------12--12--12----
|--------------|------------12--12--12--12--12--|-----------12--12--12----
|--------------|------------12--12--12--12--12--|-----------12--12--12----
|--------------|--------------------------------|-------------------------
|---14-13-12---|--14-12-14----------------------|-14-12-14----------------
|---12-11-10---|--12-10-12----------------------|-12-10-12----------------

|-------------------|---------------------|---------------
|-------------------|---------------------|---------------
|----12-14-12-14^---|----12-14-14^-12-----|---------------
|-14----------------|-14--------------14--|---------------
|-------------------|---------------------|---------------
|-------------------|---------------------|---------------

|-12--12--12--12---12--12--12--12-|------------------|---------------
|-15^-15^-15^-15^--15^-15^-15^-15^|-3--3--3---5------|-3--3--3---5---
|---------------------------------|-5^-5^-5^--7^/12-|-5^-5^-5^--7^--
|----------------------------(X2)-|---------(X3)-----|---------------
|--7--6--5---------7--6--5--------|------------------|---------------
|-----------7-6-5-----------7-6-5-|------------------|---------------


© Авторские права на тексты, песни, видео и другую представленную информацию принадлежат правообладателям. Аккорды, табы, gtp и тексты песен взяты из открытых источников.
Возрастная категория сайта: 18+
Тексты некоторых песен могут содержать нецензурные выражения, брань.
© 2020 guitar-chords.ru