|----------------------------------------------------------------
|----------------------------------------------------------------
|----------3-----------3-------------------3------------3--------
|------3-----5-5----3----5--3h5----------3---5-5------3---5--3h5-
|----5------------5--------------------5------------5------------
|--3-------------------------------3-----------------------------

|------------------------------
|------------------------------
|---------3---------3-----3----
|------3----5-5---3---5-----5--
|----5----------5--------------
|--3---------------------------

|-----------------------------------------------------------------------------
|-----------------------------------------------------------------------------
|----5-5p4---4---------------5-5p4---4-------------------5p4---4--------------
|-/7-------7---7-5-5h7-5h7---------7---7-5-5h7-5h7-----5-----7---7-5-5h7-5h7--
|--------------------------------------------------5h7------------------------
|-----------------------------------------------------------------------------

|------------------------------
|------------------------------
|-5p4---5p4---5p4---5p4---4----
|-----7-----7-----7-----7---7--
|------------------------------
|------------------------------
         (slide up then down)
|5/7--10-10///\------7-5-5/7----------------------------
|--------------------------------------------------------
|2/4---7--7///\------4-2-2/4----------------------------
|--------------------------------------------------------
|--------------------------------------------------------
|--------------------------------------------------------

|--12=1210--7=75----5/7---5/7-10-10/12=12u--7-5-5/7---7-7/10-12-12/14-10u-
|---------------------------*---------------------------*---------------------
|------9 7----42--2=2/4---2/4--7--7 /9^10u--4-2-2/4---4-4 /7--9--9/11--7u-
|-----------------------------------------------------------------------------
|-----------------------------------------------------------------------------
|-----------------------------------------------------------------------------

|-------------------------------------
|-------------------------------------
|-------9-7----------9-7------------
|-------9-7---9-7---9-7---9-7-----
|-------7-5---9-7---7-5---9-7-----
|--------------7-5----------7-5-----

Solo:        
|---------------------------9-----------------12^-12^---12p9------9-----------
|-------------------------9---12-12^----12p9-----------------9h12---12-9-9----
|--------------------9-11^----------------------------------------------------
|---------------9-11----------------------------------------------------------
|---9-10-11-------------------------------------------------------------------
|---7--8--9-------------------------------------------------------------------

|-------------------9-----------------------------9---------------------------
|-----------------9--12-------------------------9---12-------------9----------
|--11-11---(11^13)------(11^13)-(11^13)-(11^12)--------(11^**)-9------12p11p9-
|-----------------------------------------------------------------------------
|-----------------------------------------------------------------------------
|-----------------------------------------------------------------------------

|--------------------9-------------------
|------------------9---12--9------------
|-11p10p9----11^(**)---------(11^12)--9-
|---------------------------------------
|---------------------------------------
|---------------------------------------

Verse groove:    |--------------------------------------
|--------------------------------------
|--------------------------------------
|---------------5----------------------
|--5-5--8-8--5--3-----5-5--8-8--5--3---
|--3-3--6-6--3--------3-3--6-6--3--1---

Pre-solo:    |--------------------------
|--------------------------
|--------------------------
|-3h5-(3)h5-------3--------
|-------------3-5---5------
|---------------------3^-^-

|-------------------------------------------------------------------
|-3--/-6--/--8-/15(1)--3--/-6--/--8-/15(1)--3--/-6--/--8--/-10----
|-5^-/-8^-/-10^/--------5^-/-8^-/-10^/--------5^-/-8^-/-10^-/-12^---
|-------------------------------------------------------------------
|-------------------------------------------------------------------
|-------------------------------------------------------------------

|--------15------------------------18^-18^-p15-18p15---18p15-------------
|-----15----18^-18^-18^-18^-^---15------------------18-------18-18p15----
|--17-----------------------------------------------------------------17-
|------------------------------------------------------------------------
|------------------------------------------------------------------------
|------------------------------------------------------------------------

|--------15--------------------15---------------
|-----15----18p15-----------15----18p15---------
|--17^------------17-15-17^-------------17-15---
|-----------------------------------------------
|-----------------------------------------------
|-----------------------------------------------

|---------------------3-------------3---------------3--------------3-------------
|---3---------------3---6p3-----------6p3---------3---6p3--------3---6p3---------
|---3--------3---5^---------5-3--5^-------5-3--5^---------5-3-5^---------5-5p3---
|-5----5-3-5-------------------------------------------------------------------5-
|--------------------------------------------------------------------------------
|--------------------------------------------------------------------------------

|--------------------------
|--------------------------
|--------------------------
|-3h5-(3)h5-------3--------
|-------------3-5---5------
|---------------------3^-^-

|--5h6---5-----5h6---5----------
|------8---6h8-----8---6h8------
|-------------------------------
|-------------------------------
|-------------------------------
|-------------------------------

© Авторские права на тексты, песни, видео и другую представленную информацию принадлежат правообладателям. Аккорды, табы, gtp и тексты песен взяты из открытых источников.
Возрастная категория сайта: 18+
Тексты некоторых песен могут содержать нецензурные выражения, брань.
© 2020 guitar-chords.ru