Sabbath, Bloody Sabbath (1973)
Killing Yourself to Live

Bass
tune down 1 1/2 steps low to high (C# F# B E)

Intro 2x
||-----------5-6-------------5------------------------5---
||--------7------5-7--7----5---5-----------7--7-7---5---5-
||-----------------------7-------5--5-7--7--------7-------
||-----5--------------------------------------------------
                                              vocal riff
-------5-6-------------5--------------------||---------7/9
----7------5-7--7----5---5-----------7--7-7-||------------
-------------------7-------5--5-7--7--------||-5/75-5----
-5------------------------------------------||------------

7---7----------------------7/97---7---------------||----
-------------5-7-3--------------------------5-7-3---||----
---5---5/75--------5/75-5-------5---5/75---------||----
----------------------------------------------------||-10-
Killing your self to live___________
----------------------------------------------------------
---------------------------------------------8-8-8-8-7-7-7
-------------------------8-8------------------------------
10-10-10-10--10-8-8-8-8-----8-7-7-7-7-7-7--------------

---||-----------------------------------------------------
-7-||-----------------------------------------------------
---||-0-----0---0---0---0----0-0-0-0-0-0-0-0-0-0-0-0-0-0-0
---||-----------------------------------------------------
           hold this for a long time
----------|-----------------------------------------------
----------|5h7-7-7-7-5h7-7-7-7-5h7-7-7-7-5h7-7-5---5h7-7-7
0-0-0-0-0-|--------------------------------------7--------
----------|-----------------------------------------------

---------------------------------||------7--7-5h6p5-------
-7-5h7-7-7-7-5h7-7-7-7-5h7-7-5---||-7--7------------7-7--7
-------------------------------7-||-----------------------
---------------------------------||-----------------------
             sometmes ending w/ this              2nd solo
-7--7-5h6p5-|--------------------7--7-5h6p5------||-------
------------|-5------5------7--7------------7-7--||-------
------------|------------------------------------||---5-3-
------------|----8------8------------------------||-5-----
 & vocal riff   outro
--------------||----------------------------------------||
--------------||----------------------------------------||
-0------5-3-0-||-5--5--------------5--5-------------5--5||
---5--5-------||----------------------------------------||
look out, the main riff is a little tricky


© Авторские права на тексты, песни, видео и другую представленную информацию принадлежат правообладателям. Аккорды, табы, gtp и тексты песен взяты из открытых источников.
Возрастная категория сайта: 18+
Тексты некоторых песен могут содержать нецензурные выражения, брань.
© 2020 guitar-chords.ru