Master Of Reality (1971)
Lord Of This World

Bass

tune down
|--------------------------------------
|--------------------------------------
|-7--7-7-5---4---5-/7-----------------
|---------------------/7---6---7--7----
time the pauses for this part
|---------------------------------------------------------
|-----------------------5---------------------------------
|-7----5h7---5h7----5h7---7--5h7-----5h7---5h7------5--6--
|------------------------------------------------7--------

|---------------------------------------------------
|---------------7-5---------------------------------
|-------------7-----7---5h7-------------------------
|--7---6---5----------------------------------------

|------------------------------------------------------
|-----------------9h11-9--97--------------------------
|--7-8-9p7---7----------------7------------------------
|----------9-------------------------------------------
w/solo
|-------9----9-9-9------------------------------------------
|-----9------------9----------------------------------------
|-7------------------7-----3-3-3-3-3---3-3--5-5-5-5-5--5-5--
|-----------------------------------------------------------

|-----9---------9-----9-------------5--------7-----7------
|---9---------9-----9-------------5--------7-----7--------
|-7------7--------7---------3-3-3------5-------5----------
|---------------------------------------------------------
you can vary between these two solo bass lines.
|----------------------------------------------------------
|-----9-9-9----------7-7-7---------9-9-9-------------------
|---9--------------7-------------9-------------7-----------
|-7--------------5-------------7-------------5---5-5-5-----

|-----9---------9-----9-------------5--------7-----------
|---9---------9-----9-------------5--------7-------------
|-7------7--------7---------3-3-3------5-------10-9------
|--------------------------------------------------------


© Авторские права на тексты, песни, видео и другую представленную информацию принадлежат правообладателям. Аккорды, табы, gtp и тексты песен взяты из открытых источников.
Возрастная категория сайта: 18+
Тексты некоторых песен могут содержать нецензурные выражения, брань.
© 2020 guitar-chords.ru