These are the first three main riffs i think...gimme a break if i'm wrong
i did this late at night.
E-|------------------------------------|--------------------------------------|
B-|------------------------------------|--------------------------------------|
G-|------------------------------------|--------------------------------------|
D-|-7-----6----------------------------|--------------------------------------|
A-|-5-8---4-7---4-----3-----2-----1----|--------------------------------------|
E-|---6-x---5-x---5-x---4-x---3-x---2-x|--------------------------------------|

E-|--------------------------------------------|------------------------------|
B-|--------------------------------------------|------------------------------|
G-|----------------------------------delay-----|------------------------------|
D-|-9--9-9-9-8--9---5--5-5-5-4--5----7-5---7-5-|------------------------------|
A-|-7--7-7-7-7--7---3--3-3-3-3--3--5-----5-----|------------------------------|
E-|--------------------------------------------|------------------------------|

This played behind verses
E-|---------------------------------------------|----------------------------|
B-|---------------------------------------------|----------------------------|
G-|---------------------------------------------|----------------------------|
D-|-9--9-9-9-9----9-9-9-9--5--9--9-9-9-9--5-4-3-|----------------------------|
A-|-7--7-7-7-7----7-7-7-7--3--7--7-7-7-7--3-2-1-|----------------------------|
E-|---------------------------------------------|----------------------------|

" Look all around
can't you open your eyes
voices are calling
Killing rain falling down from the sky
Crying with nightmare tears
Out on the streets
You'll see blood on the ground
Cities are burning
Feeling the pain cutting right to your soul
Goodbye now
You're caught in his spell" Ronnie James Dio

© Авторские права на тексты, песни, видео и другую представленную информацию принадлежат правообладателям. Аккорды, табы, gtp и тексты песен взяты из открытых источников.
Возрастная категория сайта: 18+
Тексты некоторых песен могут содержать нецензурные выражения, брань.
© 2020 guitar-chords.ru