#табулатура

    Heaven And Hell (1980)
Neon Knights

note: "*"s are used to represent the same note X times (listen to the song).
Example:
    circles and rings...
G---------------------------------------------------
D---------------------2-----------------------------
A---0*----3*-------3-----5*----3--2--0-----3--2--0--
E---------------------------------------------------
that would be
G--------------------------------------------------------------
D--------------------------2-----------------------------------
A---0-0-0-0-0---3-3-3---3-----5-5-5-5-5---3--2--0-----3--2--0--
E--------------------------------------------------------------
Tune down 1/2 step (Eb)
G---------------------------------------------|------------|------------
D---------------------------------------------|-----4------|-----4------
A---7--7--7--7--7--7--7--7--7--7--7--7--7--7--|--5-----7*--|--5-----5---
E---------------------------------------------|------------|------------
                       again and again
G------------------||-----------------------||
D------------------||-----------3*----------||
A---4-----2-----4--||--5*-------------3*----||
E------------------||-----------------------||
    circles and rings...
G-----------------------------------------------------------------------
D---------------------2-------------------------------------------------
A---0*----3*-------3-----5*----3--2--0-----3--2--0--------0*----3*------
E-----------------------------------------------------------------------

G------------------------||---------------------------------------------
D---------2--------------||--------------------2------------------------
A------3-----5*----------||--0*----3*-------3-----5*-------3--2--0------
E------------------3*----||---------------------------------------------
                                            bloodied angels...
G---------------------------------------||------------------------------
D---------------------------------------||-----------------------2------
A------3--2--0--------------------------||--5*-------3*-------3-----5*--
E------------------5*-------3*------5*--||------------------------------

G------------------------------------------------||
D------------------------------------------------||
A---3*-------------3--2--0-----------3--2--0-----||
E---------5*-------------------5*----------------||
   phantom figures...
G-------------------------7--5-----------------------------------------|
D-----------------2-------------7--5--7--5--------------5--3-----------|
A--5*----3*----3-----5*---------------------6--5--3*----------5--3-----|
E-------------------------------------------------------------------3--|
  Neon
  Knights!     Guitar Solo
G----------||---------------------------------|
D----------||---------9*----------------------|
A----------||--7*-------------3*-------5*-----|
E--5-------||---------------------------------|

G-------------------------------|-------------|
D---------7*--------------------|---back to---| repeat a few times, then:
A--7*----------5--7--5*-----3*--|---previous--|
E-------------------------------|-------------|

G-----|--------------------||
D-----|--9--7--5-----------|| back to 1st
A-----|-----------9--7--5--|| figure, etc.
E--7--|--------------------||
   Live ending
G------------------------------------|
D------------------------------------|
A--5---4---2---4---5---4---2---4---7-|
E------------------------------------|
Geezer Butler rules!!!

© Авторские права на тексты, песни, видео и другую представленную информацию принадлежат правообладателям. Аккорды, табы, gtp и тексты песен взяты из открытых источников.
Возрастная категория сайта: 18+
Тексты некоторых песен могут содержать нецензурные выражения, брань.
© 2020 guitar-chords.ru