Intro (2 раза)
E---------------------------------------------------------------------------------------------|
B---------------------------------------------------------------------------------------------|
G---10---10---10------------8--10----------8--10--10--10--10-----------8--10----------8--10---|
D---10---10---10----8--10----------8--10----------10--10--10---8--10----------8--10-----------|
A---8-----8----8---------------------------------------8---8----8-----------------------------|
E---------------------------------------------------------------------------------------------|

Verse (играть 4 раза за куплет)
E---------------------------------------------------------------------------------------------|
B---------------------------------------------------------------------------------------------|
G-------------------------------------------------------------12--8---10----------------------|
D-------------------------------------------------------------12--8---10----------------------|
A-8-8-8-8-8-8-8-8-8-8-8-8-8-8-8-8-6-6-6-6-6-6-6-6-10--6---8-----------------------------------|
E---------------------------------------------------------------------------------------------|
Finished with my woman 'cause she couldn't help me with my mind
people think I'm insane because I am frowning all the time
E#  C#  D# 
E--------------------------------------------------------------|
B--------------------------------------------------------------|
G---10---6----8------------------------------------------------|
D---10---6----8------------------------------------------------| } Все это повторить 2 раза
A---8----4----6---2-2-2-2-2-2-2-2-2-2-2-2-2-2-2-2--------------|
E--------------------------------------------------------------|

Verse
All day long I think of things but nothing seems to satisfy
Think I'll lose my mind if I don't find something to pacify
E#                       D#                      E# 
Can you help me occupy my brain?
        D# 
Oh yeah
Verse
I need someone to show me the things in life that I can't find
I can't see the things that make true happiness, I must be blind
Solo
Make a joke and I will sigh and you will laugh and I will cry
Happiness I cannot feel and love to me us so unreal
E#  C#  D# E# } x2 
Verse


© Авторские права на тексты, песни, видео и другую представленную информацию принадлежат правообладателям. Аккорды, табы, gtp и тексты песен взяты из открытых источников.
Возрастная категория сайта: 18+
Тексты некоторых песен могут содержать нецензурные выражения, брань.
© 2020 guitar-chords.ru