#табулатура

    Paranoid (1970)
Rat Salad

Bass

||--------------------------------------------||------------------
||----5---3--------------------5---3----------||------------------
||------------5------------------------5------||--------3-3h4-----
||----------------3-----------------------3-||--3--5---------6--
                                  riff1 2x                   riff 2
---------------------------||--------------------3----||----------
---------------------------||----------------3h5----5-||----------
--3h4-----3h4-----3h4------||----------3--4-----------||---------3
-------6-------6--------6--||---3---6-----------------||--3---6---
                          ^                              ^
---------3-----3---5-5--3---------------3-----3---5-5--3-----||---
----3h5-----5--------------5--3------------5--------------5--||---
-4-------------------------------5-4-3-----------------------||---
-------------------------------------------------------------||---

main riff                                riff1 2x, riff2
------------------------------3--------||-----------------------||
--5--5------3-----5--5-----3-----5--5--||-----------------------||
---------5-----5--------5--------------||-----------------------||
---------------------------------------||-----------------------||

    drum solo           riff 1 2x, riff 2 end      KEY
-----------------------||-------------------||   =slide down
-----------------------||-------------------||   h=hammer-on
-----------------------||-------------------||   ^= string bend
-----------------------||-------------------||

© Авторские права на тексты, песни, видео и другую представленную информацию принадлежат правообладателям. Аккорды, табы, gtp и тексты песен взяты из открытых источников.
Возрастная категория сайта: 18+
Тексты некоторых песен могут содержать нецензурные выражения, брань.
© 2020 guitar-chords.ru