Sabbath, Bloody Sabbath (1974)
Sabbath, Bloody Sabbath

Bass:        
----------------------------|-------2-----4--------------||---------------------
----------------------------|-----2-----4--------2-------||---------------------
--2--4-4-4-4----2--4-4-4-4--|---0-----2------4-------4---||---------------------
----------------------------|----------------------------||---------------------

----------------------------|----------4-------4-4-4-4...---||------------------
---4-------2------4-----2---|------------4---4--------------||------------------
----------------------------|--------------2----------------||------------------
----------------------------|-------------------------------||------------------

----------------------------||----6-6-6-4-6-6----------------------------------
----------------------------||-------------------------------------------------
--4---7-6-7-6-7-4-7-6-8-----||-----------------7-6-4--6------------------------
----------------------------||--------------------------4----------------------

----------------------------||------------------------------------------------
----4-6-6-6-4---6-6---------||--------2-1-------------------------------------
--6-----------6-------------||------------4-2-0--------------------------------
----------------------------||-------------------------------------------------


© Авторские права на тексты, песни, видео и другую представленную информацию принадлежат правообладателям. Аккорды, табы, gtp и тексты песен взяты из открытых источников.
Возрастная категория сайта: 18+
Тексты некоторых песен могут содержать нецензурные выражения, брань.
© 2020 guitar-chords.ru