INTRO:        
e--------------------------------------------------------------|
B--------------------------------------------------------------|
G--------------------------------------------------------------|
D--7/9-------9-------7/9-------9-------5--7--9--12--9--9-------|
A--5/7--7-7--7--7-7--5/7--7-7--7--0-0--3--5--7--10--7--7--7-7--|
E--------------------------------------------------------------|

FOR THE SLOW PART PLAY
Am9 -G  THEN AT THE END PLAY D -A/D -D -A/D -D 

     Am9     G      D    D/A 
e--|--12--|--10--|--2--|--0--|
B--|--12--|--12--|--3--|--2--|
G--|--12--|--12--|--2--|--2--|
D--|--10--|--12--|--0--|--0--|
A--|--12--|--10--|-----|-----|
E--|------|------|-----|-----|

SOLO:        
e----------------------------------------------------------------|
B----------------------------------------------------------------|
G--14b16--14--12----14b16--14--12--------11--------14--11--------|
D----------------14---------------14--14----14--12--------12--14-|
A----------------------------------------------------------------|
E----------------------------------------------------------------|

e---------------------------------------------------------------------|=
B---------------------------------15b17--15--12-----------------------|=
G--14b16--12--14----14--12--14------------------14--16--14--12--------|=
D----------------14------------14------------------------------14--14-|=
A---------------------------------------------------------------------|=
E---------------------------------------------------------------------|=

e---------------------------------------------------------------------|=
B---------------------------------------------------------------------|=
G--14b16--16--14--12----12--14b16--16--16--16--16--14--12-------------|=
D--------------------14-----------------------------------14----------|=
A---------------------------------------------------------------------|=
E---------------------------------------------------------------------|=

e------------------------------------------------|
B--15b17--15--12---------------------------------|
G-----------------14--16--14--12-----------------|
D---------------------------------14--14---------|
A------------------------------------------------|
E------------------------------------------------|

PLAYED AT 3:01
e--------------------------------------------------------|
B--------------------------------------------------------|
G--7--7--5--7---7--5--7---5--4--5--4--5-----4--5--4------|
D----------------------------------------7------------4--|
A-----------------------------------------------------2--|
E--------------------------------------------------------|

HEAVEY PART AT 3:18
e---------------------------------------------|
B---------------------------------------------|
G---------------------------------------------|
D---------------------------------------------|
A---------------------------------------------|
E--0--0--3--2--3--2--3--0---0--3--2--3--4-----|

PLAYED AT 5:06
e---------------------------------------------|
B---------------------------------------------|
G---------------------------------------------|
D--9--9--9---7---9--9--9---7--5--7--4---------|
A--7--7--7---5---7--7--7---5--3--5--2---2/5---|
E---------------------------------------------|

OUTRO BIT:    e--------------------------------------|
B--------------------------------------|
G--------------------------------------|
D--------------------------------------|
A-----0--2--2--2p0-----2--2-----0------|
E--2----------------2--------2---------|

© Авторские права на тексты, песни, видео и другую представленную информацию принадлежат правообладателям. Аккорды, табы, gtp и тексты песен взяты из открытых источников.
Возрастная категория сайта: 18+
Тексты некоторых песен могут содержать нецензурные выражения, брань.
© 2020 guitar-chords.ru