Volume 4 (1972)
Snowblind

Main Riff
  E5  F#5 G5  D5  E5     C                            D 
e-------------------------------------0----------------------2---2-----------*
B----------------------------------1-----1----------------3---------3--------*
G-------------------------------0-----------0----------2---------------2-----*
D--9--11--12---7---9---------2-----------------0----0---------------------0--*
A--7---9--10---5---7---0--3--------------------------------------------------*
E----------------------------------------------------------------------------*

0:17 seconds into the song this is played
e------------------------------------*
B------------------------------------*
G------------------------------------*
D--9--9-----9------7--7--------------*
A--7--7--0--7---0--5--5---5/7--10----*
E-- ---------------------------------*

0:41 seconds into this song this is played
e----------------------------------------0------*
B----------------------------1--------3---------*
G-------------------------2--------2------------*
D----------------------3--------0---------------*
A--7----------0-----0---------------------------*
E-----10---9------------------------------------*

1:40 into the song this is played
e----------0-----------------------------------0------------------0------*
B--------0---0-------------0-------0---------0---0--------------0---0----*
G------0-------0---------0-------0---------0-------0----------0-------0--*
D----9-----------9-----7-------5---------5-----------5------4------------*
A--7-----------------5-------4---------3------------------2--------------*
E------------------------------------------------------------------------*

solo at 2:21
e----------------------------12------------------------------------
B--12--15--15b-15b-15b-15b-------15---12---------------------------
G------------------------------------------15--14--12--------------
D------------------------------------------------------\7--5-------
A------------------------------------------------------------------
E------------------------------------------------------------------

e------------------------------------------------------------------
B------------------------------------------------------------------
G---------------------------------------------5--------------------
D-------5--7--7b-7b-7b--7--5--7----------5------7---------5--7-----
A--5h7---------------------------7--5h7-----7-------5h7------------
E------------------------------------------------------------------

e------------------------------------------------------------------
B------------------------------------------------------------------
G------------------------------------------------------------------
D--7b-7b--7--5--7b--7--5h7-----------5------5---------5--7---------
A---------------------------7--5h7------7------7--5h7--------------
E------------------------------------------------------------------

e---------------------------------------------------------15b--15b--
B------------15b--15b--15b--15b--12---------------------------------
G-------------------------------------15--12------------------------
D--7b--7--5-----------------------------------15--14--12------------
A-------------------------------------------------------------------
E-------------------------------------------------------------------

e--12-------12------------------------------------------*
B------15b------15--12----------------------------------*
G------------------------15--14--12---------------------*
D-------------------------------------14\---------------*
A-------------------------------------------------------*
E-------------------------------------------------------*

3:28 this riff starts
e-------------------------------------------------------------------*
B-------------------------------------------------------------------*
G-------------------------------------------------------------------*
D----------------------------------------------------------7--7---7-*
A--7---7h10p7h10--7----7---7h10p7h10--7----7---7h10p7h10---5--5---5-*
E-------------------------------------------------------------------*


© Авторские права на тексты, песни, видео и другую представленную информацию принадлежат правообладателям. Аккорды, табы, gtp и тексты песен взяты из открытых источников.
Возрастная категория сайта: 18+
Тексты некоторых песен могут содержать нецензурные выражения, брань.
© 2020 guitar-chords.ru