Sabbath, Bloody Sabbath (1974)
Spiral Architect

Bass

|----------------------------------------------------------
|----------------------------------------------------------
|-0--5-------0--5--5-5-5-5--5--5--5--5---------------------
|----------------------------------------------------------

|---------------------------------------------------------
|---------------------------------------------------------
|----8----7h8-8-8p7---8p7---------------------------------
|-8-----6-----------8-----8-10--10-10-10-10--10-10--10-10-
"supersttiou century...."
|---------7-------------------------7---7----------------
|-------7---7---------------------7---7---7--------------
|--5--5------------7---7-3--2--5------------------------
|--------------5-5---8-----------------------------------
"Of all the things i value..."
|----------7--7-7--7h9-7--7----7----7----7-----------------
|--------7-------------------7---7-----7-------------------
|-5--5-5---------------------------------------------------
|----------------------------------------------------------

|----------7--7-7--7h9-7--7----7----7/9-7------------------
|--------7-------------------7---7--------7---------------
|-5--5-5---------------------------------------------------
|----------------------------------------------------------
Ending, during applause:
|------7--7-7---7h9-7--7-7----7------------7--7-7--7h9-7---
|----7----------------------7---7--------7-----------------
|-5-------------------------------5--5-5------------and so on
|----------------------------------------------------------

© Авторские права на тексты, песни, видео и другую представленную информацию принадлежат правообладателям. Аккорды, табы, gtp и тексты песен взяты из открытых источников.
Возрастная категория сайта: 18+
Тексты некоторых песен могут содержать нецензурные выражения, брань.
© 2020 guitar-chords.ru