Black Sabbath (1970)
The Wizard

Bass
     
||------------|--------|-------------------------------------||
||------10----|--riff--|-10--10----------------------10------||
||--12------12|--here--|---------12--10------------------12--||
||------------|---/---|-----------------12--10--12----------||
throw this riff in every third time
||--------||
||--------||
||-15b(17)||
||--------||
 misty morning...              never talking...
||-------------------15------||----------------||
||---------------15----------||----------------||
||--12--12----13---------12--||-15--14--12-----||
||---------------------------||----------------||  b=bend


© Авторские права на тексты, песни, видео и другую представленную информацию принадлежат правообладателям. Аккорды, табы, gtp и тексты песен взяты из открытых источников.
Возрастная категория сайта: 18+
Тексты некоторых песен могут содержать нецензурные выражения, брань.
© 2020 guitar-chords.ru