#табулатура

    Black Sabbath (1970)
Wicked World

Bass

intro riff        followed by...1st time   2nd time   3rd time
||----------------------------||----------||---------||-9-7---||
||----------------------------||----------||-5h7-5---||-----9-||
||-7-7-7-7--7-7-7-7--7--5--7--||----5-6-7-||-------7-||-------||
||----------------------------||--7-------||---------||-------||
 4th time 2x                                            4x
||------------5-7b(8)7-5h7p5---------------------------||-------
||-5-6-7-7--7----------------7--7------5-7-5---5h7p5---||-------
||---------------------------------5-7-------7-------7-||-0--3--
||-----------------------------------------------------||-------
         4th fill  4x                  fill   main riff
---------||------||------------------||------||-----------------
----5--7-||------||------------------||------||-----5-----------
-7-------||---7-||-7--5-------------||--7--||-7-7----7-----7--
---------||------||-------7--6--5--3-||------||-----------7-----
     The world today is a wicked place...
---||------9-----9-----9-7--------|-------9-9-9-9-9-9--9-7------
---||----9-----9-----9-----9-7-5--|-----9-----------------9-7-5-
-5-||--7-----7-----7--------------|---7-------------------------
---||-----------------------------|-----------------------------
   Geezer interchanges these lines around
--|------9-----9-----9-7------------|-----9-9-9-9-9-9--9-7------
--|----9-----9-----9-----9-7--5-7-9-|---9------------------9-7--
--|--7-----7-----7------------------|-7-------------------------
--|---------------------------------|---------------------------
                                                pre-solo
--------||------------------------------------||----------------
-5-7-9--||------------------------------------||--------------5-
--------||-9--7------------11--9--------------||-7--5h7-5-------
--------||-------9--8-7-5---------11--10-9-7--||----------7-5---
=slide down b=bend ( )=bend to h=hammer-on p=pull-off...piece
the song together from here.

© Авторские права на тексты, песни, видео и другую представленную информацию принадлежат правообладателям. Аккорды, табы, gtp и тексты песен взяты из открытых источников.
Возрастная категория сайта: 18+
Тексты некоторых песен могут содержать нецензурные выражения, брань.
© 2020 guitar-chords.ru