A Maid Bedlam

Solo Part
   Dbm    Dbm/F# Dbm  Ab    Dbm Dbm/F#     E         F#m 
E|-----------------------------------------------2-4------|
B|-----4-5-9-7-----4-5-9-7-----4-5-9-7-5-5-5---5----7---7-|
G|-6-6-----6---6-6-----4---6-6-----6-------4-4------6-6---|  .
D|---6-----4---4-6-----------6-----4-------2--------4-----|  .
A|---4-----------4-----------4----------------------------|
E|---------------------4----------------------------------|

Flute PArt/Harp Part
E|---------------4-6-7---4--------------------------|
B|-----4-5-4---------------7-5---4---2--------------|
G|---6-------6-----------------6---4----------------|
D|-6------------------------------------------------|
A|--------------------------------------------------|
E|--------------------------------------------------|

E|---------------4-6-7---6-7-9----------------------|
B|-----4-5-4-------------------11-9----9-11-9-------|
G|---6-------6----------------------11--------------|
D|-6------------------------------------------------|
A|--------------------------------------------------|
E|--------------------------------------------------|

E|------------9-9-------------------------------------|
B|-11-12-11-9-----12-12-11-9----------0---4-5-7-5-----|
G|---------------------------11-9-7-7---1-------------|
D|-----------------------------------7----------------|
A|----------------------------------------------------|
E|----------------------------------------------------|

E|----------4-6-7-9---------------------------------|
B|------5-7---------9-7-----------------------------|
G|-6--8-----------------9---8-----6-----------------|
D|------------------------11--11-9------------------|
A|--------------------------------------------------|
E|--------------------------------------------------|
   Dbm    Dbm/F# Dbm  Ab    Dbm Dbm/F#     E         F#m 
E|-----------------------------------------------2-4------|
B|-----4-5-9-7-----4-5-9-7-----4-5-9-7-5-5-5---5----7---7-|
G|-6-6-----6---6-6-----4---6-6-----6-------4-4------6-6---|
D|---6-----4---4-6-----------6-----4-------2--------4-----|
A|---4-----------4-----------4----------------------------|
E|---------------------4----------------------------------|

Viola PArt
E|----------------------------------------------|
B|----------------------------------------------|
G|----------------------4-3-4~3~1---------------|
D|-6-4---4------------------------4~2~4---------|
A|-----7---7-6-7-4-2----------------------------|
E|-------------------4--------------------------|

Flute Part (Final)
E|-4-2-0-2-0------------7-6--7~6~4--2~0~2-----------|
B|-----------4-2-0----------------------------------|
G|-----------------1--------------------------------|
D|--------------------------------------------------|
A|--------------------------------------------------|
E|--------------------------------------------------|

Guitar Part (Only Chords)
Dbm Dbm/Gb F# 
Dbm Dbm/Gb F# 
Dbm Dbm/Gb F# E F# 
Dbm Dbm/Gb F# 
Dbm Dbm/Gb F# 
Dbm Dbm/Gb F# E F# 
Dbm Abm Dbm H Dbm 
Dbm Abm F# Abm 
Abm Dbm H H/Bb Abm Abm/F# E H 
Dbm E H F# Dbm Abm Dbm 
Dbm Dbm/Gb F# 
Dbm Dbm/Gb F# 
Dbm Dbm/Gb F# E F# 
Dbm Dbm/Gb F# 
Dbm Dbm/Gb F# 
Dbm Dbm/Gb F# E F# 
Dbm Dbm/Gb F# 
Dbm Dbm/Gb F# 
Dbm Dbm/Gb F# E F# 
Dbm Dbm/Gb F# 
Dbm Dbm/Gb F# 
Dbm Dbm/Gb F# E F# 
Abm Dbm H H/Bb Abm Abm/F# E H 
Dbm E H F# Dbm Abm Dbm 
Dbm Dbm/Gb F# 
Dbm Dbm/Gb F# 
Dbm Dbm/Gb F# E F# 
Dbm Dbm/Gb F# 
Dbm Dbm/Gb F# 
Dbm Dbm/Gb F# E F# 
...

© Авторские права на тексты, песни, видео и другую представленную информацию принадлежат правообладателям. Аккорды, табы, gtp и тексты песен взяты из открытых источников.
Возрастная категория сайта: 18+
Тексты некоторых песен могут содержать нецензурные выражения, брань.
© 2020 guitar-chords.ru