#табулатура

    
Memmingen

(Capo 2)
E||--------------0h-2--|--3-----2h3h2h0------------|--0----------------|
B||--------------------|-----0-----------3---------|--1----------------|
G||--------------------|----------------------0----|--0----------------|
D||--------------------|--2------------------------|--2----------------|
A||--------------------|-----------------2---------|--3----------------|
E||--------------------|---------------------------|-------------------|

--------------------------|---------------0h-2--|--3-----2h3h2h0------------|
--1----1h0---------0------|---------------------|-----0-----------3---------|
--2--------2--0-------2h0-|--2------------------|----------------------0----|
--2-----------------------|--0------------------|--2------------------------|
--0-----------------------|---------------------|-----------------2---------|
--------------0-----------|--2------------------|---------------------------|

--0----------------|------------------------|-------------------|
--1----------------|--1----1h0--------------|-------------------|
--0----------------|--2--------2--0----2----|--1----------------|
--2----------------|--2----------------0----|--2----------------|
--3----------------|--0---------------------|-------------------|
-------------------|--------------0----2----|--0----------------|

----------------------|----------------------|----------------------|
--1---------3------1--|--0---------1------0--|------------0---------|
--2---------2---------|--0---------0---------|--2----2----2---------|
--2-------------------|----------------------|-----------------2----|
--0-------------------|----------------------|----------------------|
-------3----2---------|--3----1----0---------|--1----0----0---------|

---------------0--------|--1h-0------------------|--0---------------------|
--0h1h0---3----1--------|--------3--1--0---------|------------1-----------|
------------------------|------------------------|-------4----2----4h2h0--|
------------------------|--0---------------------|------------2-----------|
--0-------2----3--------|------------------------|------------0-----------|
------------------------|--------------3----1----|--4---------------------|

------------------------|---------------0h-2--|--3-----2h3h2h0------------|
-------0--1--0----------|---------------------|-----0-----------3---------|
--2-----------------2h1-|--2------------------|----------------------0----|
------------------------|---------------------|--2------------------------|
------------------------|--0------------------|-----------------2---------|
--1----------0----------|---------------------|---------------------------|

--0----------------|--------------------------|---------------0h-2--|
--1----------------|--1----1h0---------0------|---------------------|
--0----------------|--2--------2--0-------2h0-|--2------------------|
--2----------------|--2-----------------------|--0------------------|
--3----------------|--0-----------------------|---------------------|
-------------------|--------------0-----------|--2------------------|

--3-----2h3h2h0------------|--0------------------|--3----2h3h2-0------------|
-----0-----------3---------|--1----1/-----8------|----------------4----7/---|
----------------------0----|--0------------------|--------------------------|
--2------------------------|--2------------------|--2-----------------------|
-----------------2---------|--3------------------|----------------2---------|
---------------------------|---------------------|--------------------------|

--0----------------||
--0----------------||
--1----------------||
--2----------------||
--2----------------||
--0----------------||

© Авторские права на тексты, песни, видео и другую представленную информацию принадлежат правообладателям. Аккорды, табы, gtp и тексты песен взяты из открытых источников.
Возрастная категория сайта: 18+
Тексты некоторых песен могут содержать нецензурные выражения, брань.
© 2020 guitar-chords.ru