Lord Of The Rings

Intro:        
|--------------|--------------|--------------|--------------|
|--------------|--------------|--------------|--------------|
|--9-----------|-----------4--|-----------7--|--------------|
|-----9-----9--|--------5-----|--------9-----|-----------9--|
|--------7-----|-----5--------|-----9--------|--------------|
|--------------|--3-----------|--7-----------|--------------|

|--------------|--------------|--------------|--------------|
|--------------|--------------|--------------|--------------|
|--9-----------|-----------4--|-----------7--|-----------7--|
|-----9-----9--|--------5-----|--------9-----|--9--7--9-----|
|--------7-----|-----5--------|-----9--------|--------------|
|--------------|--3-----------|--7-----------|--------------|

|--------------|--------------|--------------|--------------|
|--------------|--------------|--------------|--------------|
|--9-----------|-----------4--|-----------7--|--------------|
|-----9-----9--|--------5-----|--------9-----|-----------9--|
|--------7-----|-----5--------|-----9--------|--------------|
|--------------|--3-----------|--7-----------|--------------|

|--------------|--------------|--------------|--------------|
|--------------|--------------|--------------|--5-----------|
|-----------9--|--------------|-----------5--|-----5--------|
|-------10-----|-10-----------|--------7-----|--------7-----|
|----10--------|----10----10--|-----7--------|--------------|
|--8-----------|--------8-----|--5-----------|--------------|
                                                       There are

Vers 1:          Am                            C 
|--------------|--------------|-----------0--|--------------|
|-----------1--|--------------|--------------|-----1-----1--|
|--------2-----|--2-----------|--------0-----|--------0-----|
|-----2--------|-----2----2---|-----2--------|--------------|
|--0-----------|--------0-----|--3-----------|--------------|
|--------------|--------------|--------------|--------------|
  signs          on the          ring                     which
  G                             Em 
|--------------|-----3--------|--------------|--------------|
|--------------|--3-----3-----|--------------|--0--1h--0----|
|-----------0--|-----------0--|-----------0--|-----------0--|
|--------0-----|--------------|--------2-----|--------------|
|-----2--------|--------------|-----2--------|--------------|
|--3-----------|--------------|--0-----------|--------------|
   make     me   feel   so       down                     there's
  Am                             C 
|--------------|--------------|-----------0--|--------------|
|-----------1--|--------------|--------------|-----1-----1--|
|--------2-----|--2-----------|--------0-----|--------0-----|
|-----2--------|-----2----2---|-----2--------|--------------|
|--0-----------|--------0-----|--3-----------|--------------|
|--------------|--------------|--------------|--------------|
   one      to   enslave         all rings                to
  G                             Bm 
|--------------|-----3--------|--------------|--------------|
|--------------|--3-----3-----|-----------3--|--2--3h-------|
|-----------0--|-----------0--|--------4-----|---------4----|
|--------0-----|--------------|-----4--------|-----------4--|
|-----2--------|--------------|--2-----------|--------------|
|--3-----------|--------------|--------------|--------------|
   find     them  all in         time                     and
  Am                            C 
|--------------|--------------|-----------0--|--------------|
|-----------1--|--------------|--------------|-----1-----1--|
|--------2-----|--2-----------|--------0-----|--------0-----|
|-----2--------|-----2----2---|-----2--------|--------------|
|--0-----------|--------0-----|--3-----------|--------------|
|--------------|--------------|--------------|--------------|
   drive    them  in - to        darkness                 for-
  G                             Am             B  Am 
|--------------|-----3--------|--------------|--------------|
|--------------|--3-----3-----|-----------1--|-----------1--|
|-----------0--|-----------0--|--------2-----|--------2-----|
|--------0-----|--------------|-----2--------|-----2--------|
|-----2--------|--------------|--0-----------|--1-----------|
|--3-----------|--------------|--------------|--------------|
   ev -   -   -  -  er           they'll be bound
  Am 
|--------------|--------------|--0-----------|--------------|
|-----------1--|--------------|--------------|--------------|
|--------2-----|--2-----2-----|--------------|--------------|
|-----2--------|-----2--------|--------------|--------------|
|--0-----------|--------------|--------------|--------------|
|--------------|--------------|--------------|--------------|
  Am                            Em 
|--------------|--------------|--------------|--------------|
|-----------1--|--------------|--------------|--0--1h--0----|
|--------2-----|--2-----------|-----------0--|-----------0--|
|-----2--------|-----2-----2--|--------2-----|--------------|
|--0-----------|--------0-----|-----2--------|--------------|
|--------------|--------------|--0-----------|--------------|
   three    for    the           king's                   of the
  G                             Bm 
|--------------|-----3--------|--------------|--------------|
|--------------|--3-----3-----|-----------3--|--------------|
|-----------0--|-----------0--|--------4-----|-----4-----4--|
|--------0-----|--------------|-----4--------|--------4-----|
|-----2--------|--------------|--2-----------|--------------|
|--3-----------|--------------|--------------|--------------|
   elfes          high     in    light
  C                             Am  (or Em ; just try what sounds better)
|--------------|--------------|--------------|--------------|
|-----------1--|--------------|-----------0--|--0--1h--0----|
|--------0-----|--0-----------|--------2-----|-----------2--|
|-----2--------|-----2-----2--|-----2--------|--------------|
|--3-----------|--------3-----|--0-----------|--------------|
|--------------|--------------|--------------|--------------|
         nine      to the        mortal                   which
  Am 
|--------------|--------------|--0-----------|--------------|
|-----------1--|--------------|--------------|--------------|
|--------2-----|--2-----2-----|--------------|--------------|
|-----2--------|-----2-----2--|--------------|--------------|
|--0-----------|--------------|--------------|--------------|
|--------------|--------------|--------------|--------------|
   cry

Refrain:    
|--------------|--------------|--------------|--------------|
|--------------|--------------|--------------|--------------|
|-----9--------|-----7--------|-----4--------|-----5--------|
|--------9-----|--------7-----|--------4-----|--------5-----|
|-----------7--|-----------5--|-----------2--|-----------3--|
|--7-----------|--5-----------|--2-----------|--3-----------|
   slow           down           and I sail     on the river
|--------------|--------------|--------------|--------------|
|--------------|--------------|--------------|--------------|
|-----9--------|-----7--------|-----4--------|-----5--------|
|--------9-----|--------7-----|--------4-----|--------5-----|
|-----------7--|-----------5--|-----------2--|-----------3--|
|--7-----------|--5-----------|--2-----------|--3-----------|
   slow           down           and I walk     to the hill
|--------------|--------------|--------------|--------------|
|--------------|--------------|--------------|--------------|
|-----9--------|-----7--------|-----4--------|-----5--------|
|--------9-----|--------7-----|--------4-----|--------5-----|
|-----------7--|-----------5--|-----------2--|-----------3--|
|--7-----------|--5-----------|--2-----------|--3-----------|
   slow           down           and I sail     on the river
|--------------|--------------|--------------|--------------|
|--------------|--------------|--------------|--------------|
|-----9--------|-----7--------|-----4--------|-----5--------|
|--------9-----|--------7-----|--------4-----|--------5-----|
|-----------7--|-----------5--|-----------2--|-----------3--|
|--7-----------|--5-----------|--2-----------|--3-----------|
   slow           down           and I walk     to the hill
  A5 
|--------------|--------------|--------------|--------------|
|--------------|--------------|--------------|--------------|
|--2-----------|--------------|--------------|--------------|
|--2-----------|--------------|--------0--2--|--3-----2--0--|
|--0-----------|--------------|--------------|--------------|
|--------------|--------------|--------------|--------------|
  and there's no way out
|--------------|--------------|--------------|--------------|
|--------------|--------------|--------------|--------------|
|--------------|--------------|--------------|--------------|
|-----------0--|--------------|--------------|--------------|
|--3-----3-----|--2-----------|--0-------0-3-|--2-----------|
|--------------|--------3-----|--------------|-----3--1-----|

|--------------|--------------|--------------|--------------|
|--------------|--------------|--------------|--------------|
|--------------|--------------|--------------|--------------|
|--------------|--------------|--------------|--------------|
|--------2--3--|--2-----------|--------2--3--|--2-----------|
|--------------|-----3--5-----|--------------|-----3--1-----|

|--------------|--------------|--------------|--------------|
|--------------|--------------|--------------|--------------|
|--------------|--------------|--------------|--------------|
|--3-----------|--7-----------|--------------|--------------|
|--3-----------|--7-----------|--------------|--------------|
|--1-----------|--5-----------|--------------|--------------|
   Mordor Mordor Mordo   -   o   -  or                   dark
|--------------|--------------|--------------|--------------|
|--------------|--------------|--------------|--------------|
|--------------|--------------|--10----------|--------------|
|-10-----------|--------------|--10----------|--------------|
|-10-----------|--------------|--8-----------|--------------|
|-8------------|--------------|--------------|--------------|
  land under     sauron's        spell
|--------------|--------------|--------------|--------------|
|--------------|--------------|--------------|--------------|
|--------------|--------------|--------------|--------------|
|--3--10-9--5--|--3-----------|--3--10-9--5--|--3-----------|
|--3--10-9--5--|--3-----------|--3--10-9--5--|--3-----------|
|--5--8--7--3--|--5-----------|--5--8--7--3--|--5-----------|
   threated a long time          threated a long time
|--------------|--------------|--------------|--------------|
|--------------|--------------|--------------|--------------|
|--------------|--------------|--------------|--------------|
|--3--10-9--5--|--3-----------|--------------|--------------|
|--3--10-9--5--|--3-----------|--------------|--------------|
|--5--8--7--3--|--1-----------|--------------|--------------|
            seven rings to the gnoms and their halls made of stone - into the
|--3-----------|--2-----------|--------------|--0-----------|
|--3-----------|--3-----------|--------------|--0-----------|
|--0-----------|--2-----------|--------------|--0-----------|
|--0-----------|--0-----------|--------------|--2-----------|
|--2-----------|--------------|--------------|--2-----------|
|--3-----------|--------------|--------------|--0-----------|
   valley   I     feel                          down

Vers II:      Em                             G 
|--------------|----0---------|--------------|-----3--------|
|--------------|--0----0------|--------------|--------3-----|
|-----------0--|----------0---|-----------0--|-----------0--|
|--------2-----|--------------|--------0-----|--------------|
|-----2--------|--------------|-----2--------|--------------|
|--0-----------|--------------|--3-----------|--------------|
   one ring for the              dark lord's hand
   D                            Em 
|-----------2--|--------------|--------------|-----0--------|
|--------3-----|--3-----------|--------------|--------0-----|
|-----2--------|-----2-----2--|-----------0--|-----------0--|
|--0-----------|--------0-----|--------2-----|--------------|
|--------------|--------------|-----2--------|--------------|
|--------------|--------------|--0-----------|--------------|
   sitting   on   his            throne             in the
  C                              D 
|--------------|--0-----------|----------2---|--------------|
|-----------1--|-----1-----1--|-------3------|-----3-----3--|
|--------0-----|--------0-----|-----2--------|--------2-----|
|-----2--------|--------------|--0-----------|--------------|
|--3-----------|--------------|--------------|--------------|
|--------------|--------------|--------------|--------------|
   land          so              dark                 where
   Bm                            C 
|--------------|--------------|--------------|--------------|
|-----------3--|--------------|-----------1--|--------------|
|--------4-----|--4-----------|--------0-----|-----0-----0--|
|-----4--------|-----4-----4--|-----2--------|--------2-----|
|--2-----------|--------2-----|--3-----------|--------------|
|--------------|--------------|--------------|--------------|
   I      have      to           go

Refrain:    
|--------------|--------------|--------------|--------------|
|--------------|--------------|--------------|--------------|
|--9--9--------|--7--7--------|--4--4--------|--5--5--------|
|--9--9--------|--7--7--------|--4--4--------|--5--5--------|
|--7--7--------|--5--5--------|--2--2--------|--3--3--------|
|--7--7--------|--5--5--------|--2--2--------|--3--3--------|
   slow           down           and I sail     on the river
|--------------|--------------|--------------|--------------|
|--------------|--------------|--------------|--------------|
|--9--9--------|--7--7--------|--4--4--------|--5--5--------|
|--9--9--------|--7--7--------|--4--4--------|--5--5--------|
|--7--7--------|--5--5--------|--2--2--------|--3--3--------|
|--7--7--------|--5--5--------|--2--2--------|--3--3--------|
   slow           down           and I walk     to the hill
|--------------|--------------|--------------|--------------|
|--------------|--------------|--------------|--------------|
|--9--9--------|--7--7--------|--4--4--------|--5--5--------|
|--9--9--------|--7--7--------|--4--4--------|--5--5--------|
|--7--7--------|--5--5--------|--2--2--------|--3--3--------|
|--7--7--------|--5--5--------|--2--2--------|--3--3--------|
   slow           down           and I sail     on the river
|--------------|--------------|--------------|--------------|
|--------------|--------------|--------------|--------------|
|--9--9--------|--7--7--------|--4--4--------|--5--5--------|
|--9--9--------|--7--7--------|--4--4--------|--5--5--------|
|--7--7--------|--5--5--------|--2--2--------|--3--3--------|
|--7--7--------|--5--5--------|--2--2--------|--3--3--------|
   slow           down           and I walk     to the hill
|--------------|--------------|--5-----------|--------------|
|--------------|--------------|--5-----------|--------------|
|-----------5--|--------------|--5-----------|--------------|
|--------7-----|--7-----------|--7-----------|--------------|
|-----7--------|-----7-----7--|--7-----------|--------------|
|--5-----------|--------5-----|--5-----------|--------------|
   Mordor


© Авторские права на тексты, песни, видео и другую представленную информацию принадлежат правообладателям. Аккорды, табы, gtp и тексты песен взяты из открытых источников.
Возрастная категория сайта: 18+
Тексты некоторых песен могут содержать нецензурные выражения, брань.
© 2020 guitar-chords.ru