Mirror, Mirror

Rhytm Guitar

E||-------------------|---------------------|-------------------|
B||-------------------|---------------------|-------------------|
G||-------------------|----------------4----|--5----------------|
D||--7----------------|--5----7--------4----|--5----------------|
A||--7----------------|--5----7--------2----|--3----------------|
E||--5----------------|--3----5-------------|-------------------|

--------------------|-------------------|---------------------|
--------------------|-------------------|---------------------|
--4----5------------|-------------------|----------------4----|
--4----5------------|--7----------------|--5----7--------4----|
--2----3------------|--7----------------|--5----7--------2----|
--------------------|--5----------------|--3----5-------------|

-------------------|--------------------|-------------------|
-------------------|--------------------|-------------------|
--5----------------|--4----5------------|-------------------|
--5----------------|--4----5------------|--7----------------|
--3----------------|--2----3------------|--7----------------|
-------------------|--------------------|--5----------------|

---------------------|-------------------|--------------------|
---------------------|-------------------|--------------------|
----------------4----|--5----------------|--4----5------------|
--5----7--------4----|--5----------------|--4----5------------|
--5----7--------2----|--3----------------|--2----3------------|
--3----5-------------|-------------------|--------------------|

-------------------|---------------------|-------------------|
-------------------|---------------------|-------------------|
-------------------|----------------4----|--5----------------|
--7----------------|--5----7--------4----|--5----------------|
--7----------------|--5----7--------2----|--3----------------|
--5----------------|--3----5-------------|-------------------|

--------------------|--------------------|--------------------|
--------------------|--------------------|--------------------|
--4----5------------|--------------------|--------------------|
--4----5------------|--7--------7--------|--------------------|
--2----3------------|--7--------7--------|------5----7--------|
--------------------|--5--------5--------|------3----5--------|

---------------------|---------------------|--------------------|
---------------------|---------------------|--------------------|
---------------------|---------------------|--------------------|
--5----5----5--------|---------------------|--7--------7--------|
--3----3----3--------|--5----5----5--------|--7--------7--------|
---------------------|--3----3----3--------|--5--------5--------|

--------------------|---------------------|---------------------|
--------------------|---------------------|---------------------|
--------------------|---------------------|---------------------|
--------------------|--5----5----5--------|---------------------|
------5----7--------|--3----3----3--------|--5----5----5--------|
------3----5--------|---------------------|--3----3----3--------|

--------------------------------|-------------------------------|
--------------------------------|-------------------------------|
--------------------------------|-------------------------------|
--------------------------------|-------------------------------|
--7--------------7--------------|--7--------------7------7------|
--5--5-5-5-5-5-5-5--5-5-5-5-5-5-|--5--5-5-5-5-5-5-5--5-5-5--5-5-|

--------------------------------|-------------------------------|
--------------------------------|-------------------------------|
--------------------------------|-------------------------------|
--5--------------5--------------|-------------------------------|
--3--3-3-3-3-3-3-3--3-3-3-3-3-3-|--5--------------3------3------|
--------------------------------|--3--3-3-3-3-3-3-1--1-1-1--1-1-|

--------------------------------|-------------------------------|
--------------------------------|-------------------------------|
--------------------------------|-------------------------------|
--------------------------------|-------------------------------|
--7--------------7--------------|--7--------------7------7------|
--5--5-5-5-5-5-5-5--5-5-5-5-5-5-|--5--5-5-5-5-5-5-5--5-5-5--5-5-|

--------------------------------|-------------------------------|
--------------------------------|-------------------------------|
--------------------------------|-------------------------------|
--5--------------5--------------|-------------------------------|
--3--3-3-3-3-3-3-3--3-3-3-3-3-3-|--5--------------3------3------|
--------------------------------|--3--3-3-3-3-3-3-1--1-1-1--1-1-|

-------------------------|-------------------------|-------------------------|
-------------------------|-------------------------|-------------------------|
-------------------------|-------------------------|--5----------------------|
--7----------------------|--3----------------------|--5----------------------|
--7----------------------|--3----------------------|--3----3--3--3--3--3--3--|
--5----5--5--5--5--5--5--|--1----1--1--1--1--1--1--|-------------------------|

-------------------------|-------------------------|-------------------------|
-------------------------|-------------------------|-------------------------|
-------------------------|-------------------------|-------------------------|
--5----------------------|--7----------------------|--3----------------------|
--5----------------------|--7----------------------|--3----------------------|
--3----3--3--3--3--3--3--|--5----5--5--5--5--5--5--|--1----1--1--1--1--1--1--|

-------------------------|-------------------------|
-------------------------|-------------------------|
--5----------------------|-------------------------|
--5----------------------|--5----------------------|
--3----3--3--3--3--3--3--|--5----------------------|
-------------------------|--3----3--3--3--3--3--3--|

----------------------------|-------------------------|
----------------------------|-------------------------|
----------------------------|-------------------------|
----------------------------|--7----7-----------------|
--7------------7------------|--5----5----7------------|
--5----5-5-5-5-5----5-5-5-5-|------------5----5-5-5-5-|

----------------------------|----------------------|
----------------------------|----------------------|
----------------------------|----------------------|
--5------------5------------|----------------------|
--3----3-3-3-3-3----3-3-3-3-|--5----5----3----3----|
----------------------------|--3----3----1----1----|

----------------------------|-------------------------|
----------------------------|-------------------------|
----------------------------|-------------------------|
----------------------------|--7----7-----------------|
--7------------7------------|--5----5----7------------|
--5----5-5-5-5-5----5-5-5-5-|------------5----5-5-5-5-|

----------------------------|----------------------|
----------------------------|----------------------|
----------------------------|----------------------|
--5------------5------------|----------------------|
--3----3-3-3-3-3----3-3-3-3-|--5----5----3----3----|
----------------------------|--3----3----1----1----|

----------------------------------|----------------------------------|
----------------------------------|----------------------------------|
----------------------------------|----------------------------------|
----------------------------------|----------------------------------|
----------------------------------|----------------------------------|
--5-5-5-5-5-5-5-5-5-5-5-5-5-5-5-5-|--3-3-3-3-3-3-3-3-3-3-3-3-3-3-3-3-|

----------------------------------|----------------------------------|
----------------------------------|----------------------------------|
----------------------------------|----------------------------------|
----------------------------------|----------------------------------|
--5-5-5-5-5-5-5-5-5-5-5-5-5-5-5-5-|----------------------------------|
----------------------------------|--1-1-1-1-1-1-1-1-3-3-3-3-3-3-3-3-|

----------------------------------|----------------------------------|
----------------------------------|----------------------------------|
----------------------------------|----------------------------------|
----------------------------------|----------------------------------|
----------------------------------|----------------------------------|
--5-5-5-5-5-5-5-5-5-5-5-5-5-5-5-5-|--3-3-3-3-3-3-3-3-3-3-3-3-3-3-3-3-|

----------------------------------|----------------------------------|
----------------------------------|----------------------------------|
----------------------------------|----------------------------------|
----------------------------------|----------------------------------|
--5-5-5-5-5-5-5-5-5-5-5-5-5-5-5-5-|----------------------------------|
----------------------------------|--1-1-1-1-1-1-1-1-3-3-3-3-3-3-3-3-|

----------------------------------|----------------------------------|
----------------------------------|----------------------------------|
----------------------------------|----------------------------------|
----------------------------------|----------------------------------|
----------------------------------|----------------------------------|
--5-5-5-5-5-5-5-5-5-5-5-5-5-5-5-5-|--3-3-3-3-3-3-3-3-3-3-3-3-3-3-3-3-|

----------------------------------|----------------------------------|
----------------------------------|----------------------------------|
----------------------------------|----------------------------------|
----------------------------------|----------------------------------|
--5-5-5-5-5-5-5-5-5-5-5-5-5-5-5-5-|----------------------------------|
----------------------------------|--1-1-1-1-1-1-1-1-3-3-3-3-3-3-3-3-|

----------------------------------|----------------------------------|
----------------------------------|----------------------------------|
----------------------------------|----------------------------------|
----------------------------------|----------------------------------|
----------------------------------|----------------------------------|
--5-5-5-5-5-5-5-5-5-5-5-5-5-5-5-5-|--3-3-3-3-3-3-3-3-3-3-3-3-3-3-3-3-|

----------------------------------|----------------------------------|
----------------------------------|----------------------------------|
----------------------------------|----------------------------------|
----------------------------------|----------------------------------|
--5-5-5-5-5-5-5-5-5-5-5-5-5-5-5-5-|----------------------------------|
----------------------------------|--1-1-1-1-1-1-1-1-3-3-3-3-3-3-3-3-|

-----------------------|-----------------------|-----------------------|
-----------------------|-----------------------|-----------------------|
-------------5---------|-------------5----7----|-------------5---------|
--7----------5----5----|--7----------5----7----|--7----------5----5----|
--7----------3----5----|--7----------3----5----|--7----------3----5----|
--5----5--5-------3----|--5----5--5------------|--5----5--5-------3----|

------------------------|-----------------------|-----------------------|
------------------------|-----------------------|-----------------------|
------------------------|-------------5---------|-------------5----7----|
--7----------2----------|--7----------5----5----|--7----------5----7----|
--7----------2----------|--7----------3----5----|--7----------3----5----|
--5----5--5--0----0--0--|--5----5--5-------3----|--5----5--5------------|

-----------------------|------------------------|----------------------------|
-----------------------|------------------------|----------------------------|
-------------5---------|------------------------|----------------------------|
--7----------5----5----|--7----------2----------|--7------------7------------|
--7----------3----5----|--7----------2----------|--7------------7------------|
--5----5--5-------3----|--5----5--5--0----0--0--|--5----5-5-5-5-5----5-5-5-5-|

-------------------------|----------------------------|--------------------|
-------------------------|----------------------------|--------------------|
--------------------4----|--5------------5------------|--4----5------------|
--7------------5----4----|--5------------5------------|--4----5------------|
--7------------5----2----|--3----3-3-3-3-3----3-3-3-3-|--2----3------------|
--5----5-5-5-5-3---------|----------------------------|--------------------|

----------------------------|-------------------------|
----------------------------|-------------------------|
----------------------------|--------------------4----|
--7------------7------------|--7------------5----4----|
--7------------7------------|--7------------5----2----|
--5----5-5-5-5-5----5-5-5-5-|--5----5-5-5-5-3---------|

----------------------------|--------------------|----------------------------|
----------------------------|--------------------|----------------------------|
--5------------5------------|--4----5------------|----------------------------|
--5------------5------------|--4----5------------|--7------------7------------|
--3----3-3-3-3-3----3-3-3-3-|--2----3------------|--7------------7------------|
----------------------------|--------------------|--5----5-5-5-5-5----5-5-5-5-|

-------------------------|----------------------------|--------------------|
-------------------------|----------------------------|--------------------|
--------------------4----|--5------------5------------|--4----5------------|
--7------------5----4----|--5------------5------------|--4----5------------|
--7------------5----2----|--3----3-3-3-3-3----3-3-3-3-|--2----3------------|
--5----5-5-5-5-3---------|----------------------------|--------------------|

----------------------------|-------------------------|
----------------------------|-------------------------|
----------------------------|--------------------4----|
--7------------7------------|--7------------5----4----|
--7------------7------------|--7------------5----2----|
--5----5-5-5-5-5----5-5-5-5-|--5----5-5-5-5-3---------|

----------------------------|--------------------|-----------------------|
----------------------------|--------------------|-----------------------|
--5------------5------------|--4----5------------|--9----------9----5----|
--5------------5------------|--4----5------------|--9----9--9--9----5----|
--3----3-3-3-3-3----3-3-3-3-|--2----3------------|--7----7--7--7----3----|
----------------------------|--------------------|-----------------------|

---------------------|------------------------|----------------------|
---------------------|------------------------|----------------------|
--7----9----9--------|--9-----------9----5----|--7----5----9----7----|
--7----9----9--------|--9----9--10--9----5----|--5----3----9----7----|
--5----7----7--------|--7----7--7---7----3----|------------7----5----|
---------------------|------------------------|----------------------|

-----------------------|---------------------|------------------------|
-----------------------|---------------------|------------------------|
--9----------9----5----|--7----9----9--------|--9-----------9----5----|
--9----9--9--9----5----|--7----9----9--------|--9----9--10--9----5----|
--7----7--7--7----3----|--5----7----7--------|--7----7--7---7----3----|
-----------------------|---------------------|------------------------|

----------------------|--------------------------------|
----------------------|--------------------------------|
--7----5----9----7----|--------------------------------|
--5----3----9----7----|--7--------------7--------------|
------------7----5----|--7--------------7--------------|
----------------------|--5--5-5-5-5-5-5-5--5-5-5-5-5-5-|

-------------------------------|--------------------------------|
-------------------------------|--------------------------------|
-------------------------------|--5--------------5--------------|
--7--------------7------7------|--5--------------5--------------|
--7--------------7------7------|--3--3-3-3-3-3-3-3--3-3-3-3-3-3-|
--5--5-5-5-5-5-5-5--5-5-5--5-5-|--------------------------------|

-------------------------------|--------------------------------|
-------------------------------|--------------------------------|
-------------------------------|--------------------------------|
--5--------------3------3------|--7--------------7--------------|
--5--------------3------3------|--7--------------7--------------|
--3--3-3-3-3-3-3-1--1-1-1--1-1-|--5--5-5-5-5-5-5-5--5-5-5-5-5-5-|

-------------------------------|--------------------------------|
-------------------------------|--------------------------------|
-------------------------------|--5--------------5--------------|
--7--------------7------7------|--5--------------5--------------|
--7--------------7------7------|--3--3-3-3-3-3-3-3--3-3-3-3-3-3-|
--5--5-5-5-5-5-5-5--5-5-5--5-5-|--------------------------------|

-------------------------------|--------------------|-------------------|
-------------------------------|--------------------|-------------------|
-------------------------------|--5-----------------|-------------------|
--5--------------3------3------|--5--------2--------|--5----------------|
--5--------------3------3------|--3--------2--------|--5----------------|
--3--3-3-3-3-3-3-1--1-1-1--1-1-|-----------0--------|--3----------------|

--------------------|---------------------|--------------------|
--------------------|---------------------|--------------------|
--5-----------------|---------------------|--5-----------------|
--5--------2--------|--5--------3----5----|--5--------2--------|
--3--------2--------|--5--------3----5----|--3--------2--------|
-----------0--------|--3--------1----3----|-----------0--------|

-------------------|--------------------|---------------------|
-------------------|--------------------|---------------------|
-------------------|--5-----------------|---------------------|
--5----------------|--5--------2--------|--5--------3----5----|
--5----------------|--3--------2--------|--5--------3----5----|
--3----------------|-----------0--------|--3--------1----3----|

----------------------------------|----------------------------------|
----------------------------------|----------------------------------|
----------------------------------|----------------------------------|
----------------------------------|----------------------------------|
----------------------------------|----------------------------------|
--5-5-5-5-5-5-5-5-5-5-5-5-5-5-5-5-|--3-3-3-3-3-3-3-3-3-3-3-3-3-3-3-3-|

----------------------------------|----------------------------------|
----------------------------------|----------------------------------|
----------------------------------|----------------------------------|
----------------------------------|----------------------------------|
--5-5-5-5-5-5-5-5-5-5-5-5-5-5-5-5-|----------------------------------|
----------------------------------|--1-1-1-1-1-1-1-1-3-3-3-3-3-3-3-3-|

----------------------------------|----------------------------------|
----------------------------------|----------------------------------|
----------------------------------|----------------------------------|
----------------------------------|----------------------------------|
----------------------------------|----------------------------------|
--5-5-5-5-5-5-5-5-5-5-5-5-5-5-5-5-|--3-3-3-3-3-3-3-3-3-3-3-3-3-3-3-3-|

----------------------------------|----------------------------------|
----------------------------------|----------------------------------|
----------------------------------|----------------------------------|
----------------------------------|----------------------------------|
--5-5-5-5-5-5-5-5-5-5-5-5-5-5-5-5-|----------------------------------|
----------------------------------|--1-1-1-1-1-1-1-1-3-3-3-3-3-3-3-3-|

----------------------------------|----------------------------------|
----------------------------------|----------------------------------|
----------------------------------|----------------------------------|
----------------------------------|----------------------------------|
----------------------------------|----------------------------------|
--5-5-5-5-5-5-5-5-5-5-5-5-5-5-5-5-|--3-3-3-3-3-3-3-3-3-3-3-3-3-3-3-3-|

----------------------------------|----------------------------------|
----------------------------------|----------------------------------|
----------------------------------|----------------------------------|
----------------------------------|----------------------------------|
--5-5-5-5-5-5-5-5-5-5-5-5-5-5-5-5-|----------------------------------|
----------------------------------|--1-1-1-1-1-1-1-1-3-3-3-3-3-3-3-3-|

----------------------------------|----------------------------------|
----------------------------------|----------------------------------|
----------------------------------|----------------------------------|
----------------------------------|----------------------------------|
----------------------------------|----------------------------------|
--5-5-5-5-5-5-5-5-5-5-5-5-5-5-5-5-|--3-3-3-3-3-3-3-3-3-3-3-3-3-3-3-3-|

----------------------------------|----------------------------------|
----------------------------------|----------------------------------|
----------------------------------|----------------------------------|
----------------------------------|----------------------------------|
--5-5-5-5-5-5-5-5-5-5-5-5-5-5-5-5-|----------------------------------|
----------------------------------|--1-1-1-1-1-1-1-1-3-3-3-3-3-3-3-3-|

------------------------|------------------------|------------------------|
------------------------|------------------------|------------------------|
------------------------|--7---------------------|------------------------|
--7---------------------|--7---------------------|--7---------------------|
--7---------------------|--5----5--5--5----5--5--|--7---------------------|
--5----5--5--5----5--5--|------------------------|--5----5--5--5----5--5--|

------------------------|------------------------|------------------------|
------------------------|------------------------|------------------------|
--7---------------------|------------------------|--7---------------------|
--7---------------------|--7---------------------|--7---------------------|
--5----5--5--5----5--5--|--7---------------------|--5----5--5--5----5--5--|
------------------------|--5----5--5--5----5--5--|------------------------|

------------------------|------------------------|--------------------------|
------------------------|------------------------|--------------------------|
------------------------|--7---------------------|--------------------------|
--7---------------------|--7---------------------|--7-----------------------|
--7---------------------|--5----5--5--5----5--5--|--7-----------------------|
--5----5--5--5----5--5--|------------------------|--5--5--5--5--5----5-5-5--|

------------------|--------------------------|------------------|
------------------|--------------------------|------------------|
------------------|--------------------------|------------------|
------------------|--7-----------------------|------------------|
------------------|--7-----------------------|------------------|
------------------|--5--5--5--5--5----5-5-5--|------------------|

-------------------|-------------------|-------------------|-------------------|
-------------------|-------------------|-------------------|-------------------|
-------------------|-------------------|-------------------|-------------------|
--5----------------|--3----------------|--5----------------|--3----------------|
--5----------------|--3----------------|--5----------------|--3----------------|
--3----------------|--1----------------|--3----------------|--1----------------|

------------------------|------------------------|------------------------|
------------------------|------------------------|------------------------|
------------------------|------------------------|------------------------|
--7-----------7----5----|--7-----------7----7----|--7-----------7----5----|
--7-----------7----5----|--7-----------7----7----|--7-----------7----5----|
--5----5-5-5--5----3----|--5----5-5-5--5----5----|--5----5-5-5--5----3----|

------------------------|----------------------------------|
------------------------|----------------------------------|
------------------------|----------------------------------|
--7-----------7----7----|----------------------------------|
--7-----------7----7----|--6-6-6-6-6-6-6-6-6-6-6-6-5-5-5-5-|
--5----5-5-5--5----5----|----------------------------------|

----------------------------------|----------------------------------|
----------------------------------|----------------------------------|
----------------------------------|----------------------------------|
----------------------------------|----------------------------------|
--6-6-6-6-6-6-6-6-6-6-6-6-8-8-8-8-|--6-6-6-6-6-6-6-6-6-6-6-6-5-5-5-5-|
----------------------------------|----------------------------------|

----------------------------------|-------------------------|
----------------------------------|-------------------------|
----------------------------------|-------------------------|
----------------------------------|--5----------------------|
--6-6-6-6-6-6-6-6-6-6-6-6-8-8-8-8-|--5----------------------|
----------------------------------|--3----3--3--3--3--3--3--|

-------------------------|------------------------|-------------------|
-------------------------|------------------------|-------------------|
-------------------------|--8---------------------|-------------------|
--7----------------------|--8----------3----------|--5----------------|
--5----5--5--5--5--5--5--|--6----6--6--3----------|--5----------------|
--5----5--5--5--5--5--5--|-------------1----1--1--|--3----------------|

-------------------------|-------------------------|------------------------|
-------------------------|-------------------------|------------------------|
-------------------------|-------------------------|--8---------------------|
--5----------------------|--7----------------------|--8----------3----------|
--5----------------------|--5----5--5--5--5--5--5--|--6----6--6--3----------|
--3----3--3--3--3--3--3--|--5----5--5--5--5--5--5--|-------------1----1--1--|

-------------------|----------------------------------|
-------------------|----------------------------------|
-------------------|----------------------------------|
--5----------------|----------------------------------|
--5----------------|--8-8-8-8-8-8-8-8-8-8-8-8-8-8-8-8/|
--3----------------|----------------------------------|

----------------------------------|----------------------------------|
----------------------------------|----------------------------------|
----------------------------------|----------------------------------|
----------------------------------|----------------------------------|
--5-5-5-5-5-5-5-5-5-5-5-5-5-5-5-5/|--8-8-8-8-8-8-8-8-8-8-8-8-8-8-8-8-|
----------------------------------|----------------------------------|

----------------------------------|----------------------------------|
----------------------------------|----------------------------------|
----------------------------------|----------------------------------|
----------------------------------|----------------------------------|
----------------------------------|--8-8-8-8-8-8-8-8-8-8-8-8-8-8-8-8-|
--8-8-8-8-8-8-8-8-8-8-8-8-8-8-8-8-|----------------------------------|

----------------------------------|----------------------------------|
----------------------------------|----------------------------------|
----------------------------------|----------------------------------|
----------------------------------|----------------------------------|
--5-5-5-5-5-5-5-5-5-5-5-5-5-5-5-5-|--8-8-8-8-8-8-8-8-8-8-8-8-8-8-8-8-|
----------------------------------|----------------------------------|

----------------------------------|-------------------------------|
----------------------------------|-------------------------------|
----------------------------------|-------------------------------|
----------------------------------|--5----------------------------|
----------------------------------|--5----------------------------|
--8-8-8-8-8-8-8-8-8-8-8-8-8-8-8-8-|--3----3-3-3-3-3-3-3-3-3-3-3-3-|

-------------------------------|-------------------------------|
-------------------------------|-------------------------------|
-------------------------------|--3----------------------------|
--5----------------------------|--3----------------------------|
--6----6-6-6-6-6-6-6-6-6-6-6-6-|--1----1-1-1-1-1-1-1-1-1-1-1-1-|
--6----------------------------|-------------------------------|

-------------------------------|-------------------------------|
-------------------------------|-------------------------------|
-------------------------------|-------------------------------|
--3----------------------------|--5----------------------------|
--3----------------------------|--5----------------------------|
--1----1-1-1-1-1-1-1-1-1-1-1-1-|--3----3-3-3-3-3-3-3-3-3-3-3-3-|

-------------------------------|-------------------------------|
-------------------------------|-------------------------------|
-------------------------------|--3----------------------------|
--5----------------------------|--3----------------------------|
--6----6-6-6-6-6-6-6-6-6-6-6-6-|--1----1-1-1-1-1-1-1-1-1-1-1-1-|
--6----------------------------|-------------------------------|

-------------------------------|-------------------------|
-------------------------------|-------------------------|
-------------------------------|--3----------------------|
--3----------------------------|--3----------------------|
--3----------------------------|--1----1--1--1--1--1--1--|
--1----1-1-1-1-1-1-1-1-1-1-1-1-|-------------------------|

-------------------------|-------------------------|-------------------------|
-------------------------|-------------------------|-------------------------|
-------------------------|--3----------------------|-------------------------|
--3----------------------|--3----------------------|--3----------------------|
--3----------------------|--1----1--1--1--1--1--1--|--3----------------------|
--1----1--1--1--1--1--1--|-------------------------|--1----1--1--1--1--1--1--|

-------------------------|-------------------------|-------------------------|
-------------------------|-------------------------|-------------------------|
--3----------------------|-------------------------|--3----------------------|
--3----------------------|--3----------------------|--3----------------------|
--1----1--1--1--1--1--1--|--3----------------------|--1----1--1--1--1--1--1--|
-------------------------|--1----1--1--1--1--1--1--|-------------------------|

-------------------------|-------------------------|-------------------------|
-------------------------|-------------------------|-------------------------|
-------------------------|--5----------------------|-------------------------|
--3----------------------|--5----------------------|--5----------------------|
--3----------------------|--3----3--3--3--3--3--3--|--5----------------------|
--1----1--1--1--1--1--1--|-------------------------|--3----3--3--3--3--3--3--|

-------------------------|-------------------------|-------------------------|
-------------------------|-------------------------|-------------------------|
--5----------------------|-------------------------|--5----------------------|
--5----------------------|--5----------------------|--5----------------------|
--3----3--3--3--3--3--3--|--5----------------------|--3----3--3--3--3--3--3--|
-------------------------|--3----3--3--3--3--3--3--|-------------------------|

-------------------------|-------------------------|-------------------------|
-------------------------|-------------------------|-------------------------|
-------------------------|--5----------------------|-------------------------|
--5----------------------|--5----------------------|--5----------------------|
--5----------------------|--3----3--3--3--3--3--3--|--5----------------------|
--3----3--3--3--3--3--3--|-------------------------|--3----3--3--3--3--3--3--|

----------------------------------|----------------------------------|
----------------------------------|----------------------------------|
----------------------------------|----------------------------------|
----------------------------------|----------------------------------|
----------------------------------|----------------------------------|
--5-5-5-5-5-5-5-5-5-5-5-5-5-5-5-5-|--3-3-3-3-3-3-3-3-3-3-3-3-3-3-3-3-|

----------------------------------|----------------------------------|
----------------------------------|----------------------------------|
----------------------------------|----------------------------------|
----------------------------------|----------------------------------|
--5-5-5-5-5-5-5-5-5-5-5-5-5-5-5-5-|----------------------------------|
----------------------------------|--1-1-1-1-1-1-1-1-3-3-3-3-3-3-3-3-|

----------------------------------|----------------------------------|
----------------------------------|----------------------------------|
----------------------------------|----------------------------------|
----------------------------------|----------------------------------|
----------------------------------|----------------------------------|
--5-5-5-5-5-5-5-5-5-5-5-5-5-5-5-5-|--3-3-3-3-3-3-3-3-3-3-3-3-3-3-3-3-|

----------------------------------|----------------------------------|
----------------------------------|----------------------------------|
----------------------------------|----------------------------------|
----------------------------------|----------------------------------|
--5-5-5-5-5-5-5-5-5-5-5-5-5-5-5-5-|----------------------------------|
----------------------------------|--1-1-1-1-1-1-1-1-3-3-3-3-3-3-3-3-|

----------------------------------|----------------------------------|
----------------------------------|----------------------------------|
----------------------------------|----------------------------------|
----------------------------------|----------------------------------|
----------------------------------|----------------------------------|
--5-5-5-5-5-5-5-5-5-5-5-5-5-5-5-5-|--3-3-3-3-3-3-3-3-3-3-3-3-3-3-3-3-|

----------------------------------|----------------------------------|
----------------------------------|----------------------------------|
----------------------------------|----------------------------------|
----------------------------------|----------------------------------|
--5-5-5-5-5-5-5-5-5-5-5-5-5-5-5-5-|----------------------------------|
----------------------------------|--1-1-1-1-1-1-1-1-3-3-3-3-3-3-3-3-|

----------------------------------|----------------------------------|
----------------------------------|----------------------------------|
----------------------------------|----------------------------------|
----------------------------------|----------------------------------|
----------------------------------|----------------------------------|
--5-5-5-5-5-5-5-5-5-5-5-5-5-5-5-5-|--3-3-3-3-3-3-3-3-3-3-3-3-3-3-3-3-|

----------------------------------|----------------------------------|
----------------------------------|----------------------------------|
----------------------------------|----------------------------------|
----------------------------------|----------------------------------|
--5-5-5-5-5-5-5-5-5-5-5-5-5-5-5-5-|----------------------------------|
----------------------------------|--1-1-1-1-1-1-1-1-3-3-3-3-3-3-3-3-|

------------------------|------------------------|------------------------|
------------------------|------------------------|------------------------|
------------------------|------------------------|------------------------|
------------------------|------------------------|------------------------|
--7---------------------|--3---------------------|--7---------------------|
--5----5--5--5----5--5--|--1----1--1--1----1--1--|--5----5--5--5----5--5--|

----------------------|------------------------|------------------------|
----------------------|------------------------|------------------------|
----------------------|------------------------|------------------------|
-------------5--------|------------------------|------------------------|
--5----------5--------|--7---------------------|--3---------------------|
--3----3--3--3--------|--5----5--5--5----5--5--|--1----1--1--1----1--1--|

------------------------|----------------------|-------------------|
------------------------|----------------------|-------------------|
------------------------|----------------------|-------------------|
------------------------|-------------5--------|--7----------------|
--7---------------------|--5----------5--------|--7----------------|
--5----5--5--5----5--5--|--3----3--3--3--------|--5----------------|

-------------------|-------------------|-------------------|-------------------|
-------------------|-------------------|-------------------|-------------------|
-------------------|-------------------|-------------------|-------------------|
--3----------------|--7----------------|--5----------------|--7----------------|
--3----------------|--7----------------|--5----------------|--7----------------|
--1----------------|--5----------------|--3----------------|--5----------------|

-------------------|------------------|------------------|-------------------|
-------------------|------------------|------------------|-------------------|
-------------------|------------------|------------------|-------------------|
--3----------------|------------------|------------------|--7----------------|
--3----------------|------------------|------------------|--7----------------|
--1----------------|------------------|------------------|--5----------------|

--------------------||
--------------------||
--------------------||
--5--------7--------||
--5--------7--------||
--3--------5--------||

Lead Guitar

E||------------------|------------------|------------------|------------------|
B||------------------|------------------|------------------|------------------|
G||------------------|------------------|------------------|------------------|
D||------------------|------------------|------------------|------------------|
A||------------------|------------------|------------------|------------------|
E||------------------|------------------|------------------|------------------|

------------------|------------------|------------------|------------------|
------------------|------------------|------------------|------------------|
------------------|------------------|------------------|------------------|
------------------|------------------|------------------|------------------|
------------------|------------------|------------------|------------------|
------------------|------------------|------------------|------------------|

----------------------|--------------------------|----------------------|
----------------------|--------------------------|----------------------|
----------------------|--------------------------|----------------------|
--14~-------14~-------|--12~---14~---15~---12~---|--14~-------14~-------|
----------------------|--------------------------|----------------------|
----------------------|--------------------------|----------------------|

----------------------|----------------------|--------------------------|
----------------------|----------------------|--------------------------|
----------------------|----------------------|--------------------------|
--12~---14~-----------|--14~-------14~-------|--12~---14~---15~---12~---|
----------------------|----------------------|--------------------------|
----------------------|----------------------|--------------------------|

----------------------|----------------------|------------------------|
----------------------|----------------------|------------------------|
----------------------|----------------------|--------------------12h-|
--14~-------14~-------|--12~---14~-----------|--14--------14----------|
----------------------|----------------------|------------------------|
----------------------|----------------------|------------------------|

--------------------------------|--------------------------|
--------------------------------|--------------------------|
--12h11h12h11-------------------|--------------------------|
--------------12-----14---------|--------14----12----------|
--------------------------------|--15------------------15--|
--------------------------------|--------------------------|

------------------------------|------------------------|
------------------------------|------------------------|
------------------------------|--------------------12h-|
--------12--------------------|--14--------14----------|
--14----------15--14--12------|------------------------|
--------------------------15--|------------------------|

--------------------------------|--------------------------|
--------------------------------|--------------------------|
--12h11h12h11-------------------|--------------------------|
--------------12-----14---------|--------14----12----------|
--------------------------------|--15------------------15--|
--------------------------------|--------------------------|

------------------------------|------------------|------------------|
------------------------------|------------------|------------------|
------------------------------|------------------|------------------|
--------12--------------------|------------------|------------------|
--14----------15--14--12------|------------------|------------------|
--------------------------15--|------------------|------------------|

------------------|------------------|------------------|------------------|
------------------|------------------|------------------|------------------|
------------------|------------------|------------------|------------------|
------------------|------------------|------------------|------------------|
------------------|------------------|------------------|------------------|
------------------|------------------|------------------|------------------|

------------------|------------------|--------------------------------|
------------------|------------------|--------------------------------|
------------------|------------------|--------------------------------|
------------------|------------------|--------------------------------|
------------------|------------------|--12------12h14h15h14h15--------|
------------------|------------------|--------------------------15----|

----------------------|------------------------------|------------------------|
----------------------|------------------------------|------------------------|
----------------------|------------------------------|------------------------|
----------------------|-------------12h14h12---------|------------------------|
--12------------14----|--15------15------------14----|----------12h14---------|
----------------------|------------------------------|--15--------------------|

--------------------------------|----------------------|
--------------------------------|----------------------|
--------------------------------|----------------------|
--------------------------------|----------------------|
--12------12h14h15h14h15--------|--12------------14----|
--------------------------15----|----------------------|

------------------------------|------------------------|
------------------------------|------------------------|
------------------------------|------------------------|
-------------12h14h12---------|------------------------|
--15------15------------14----|----------12h14---------|
------------------------------|--15--------------------|

------------------------|----------------------------|
------------------------|----------------------------|
--------------------12h-|--11h-12h-11----------------|
--14--------14----------|--------------12/-14--------|
------------------------|----------------------------|
------------------------|----------------------------|

--------------------------|------------------------------|
--------------------------|------------------------------|
--------------------------|------------------------------|
--------14----12----------|--------12--------------------|
--15------------------15--|--14----------15--14--12------|
--------------------------|--------------------------15--|

------------------------|----------------------------|
------------------------|----------------------------|
--------------------12h-|--11h-12h-11----------------|
--14--------14----------|--------------12/-14--------|
------------------------|----------------------------|
------------------------|----------------------------|

--------------------------|------------------------------|--------------------|
--------------------------|------------------------------|--------------------|
--------------------------|------------------------------|--12b---------------|
--------14----12----------|--------12--------------------|--------------------|
--15------------------15--|--14----------15--14--12------|--------------------|
--------------------------|--------------------------15--|--------------------|

--------------------|--------------------|--------------------|
--------------------|--------------------|--12r---------------|
--12----------------|--------------------|--------------------|
--------------------|--12----------------|--------------------|
--------------------|--------------------|--------------------|
--------------------|--------------------|--------------------|

--------------------|--------------------|--------------------|
--------------------|--------------------|--------------------|
--12b---------------|--12----------------|--------------------|
--------------------|--------------------|--12----------------|
--------------------|--------------------|--------------------|
--------------------|--------------------|--------------------|

--------------------|--------------------|--------------------|
--12r---------------|--------------------|--------------------|
--------------------|--12b---------------|--12----------------|
--------------------|--------------------|--------------------|
--------------------|--------------------|--------------------|
--------------------|--------------------|--------------------|

--------------------|--------------------|--------------------|
--------------------|--12r---------------|--------------------|
--------------------|--------------------|--12b---------------|
--12----------------|--------------------|--------------------|
--------------------|--------------------|--------------------|
--------------------|--------------------|--------------------|

--------------------|--------------------|--------------------|
--------------------|--------------------|--12r---------------|
--12----------------|--------------------|--------------------|
--------------------|--12----------------|--------------------|
--------------------|--------------------|--------------------|
--------------------|--------------------|--------------------|

--------------------------------|--------------------------------|
----------------17------15------|--------------------15----------|
--14------14h16-----17------16--|--14------14h16-17------16--17--|
--------------------------------|--------------------------------|
--------------------------------|--------------------------------|
--------------------------------|--------------------------------|

--------------------------------|--------------------------------|
----------------17------15------|--------------------15----------|
--14------14h16-----17------16--|--14------14h16-17------16--17--|
--------------------------------|--------------------------------|
--------------------------------|--------------------------------|
--------------------------------|--------------------------------|

--------------------------------|--------------------------------|
----------------17------15------|--------------------15----------|
--14------14h16-----17------16--|--14------14h16-17------16--17--|
--------------------------------|--------------------------------|
--------------------------------|--------------------------------|
--------------------------------|--------------------------------|

--------------------------------|--------------------------------|
----------------17------15------|--------------------15----------|
--14------14h16-----17------16--|--14------14h16-17------16--17--|
--------------------------------|--------------------------------|
--------------------------------|--------------------------------|
--------------------------------|--------------------------------|

------------------|------------------|------------------|------------------|
------------------|------------------|------------------|------------------|
------------------|------------------|------------------|------------------|
------------------|------------------|------------------|------------------|
------------------|------------------|------------------|------------------|
------------------|------------------|------------------|------------------|

------------------|------------------|------------------|------------------|
------------------|------------------|------------------|------------------|
------------------|------------------|------------------|------------------|
------------------|------------------|------------------|------------------|
------------------|------------------|------------------|------------------|
------------------|------------------|------------------|------------------|

------------------|------------------|------------------|------------------|
------------------|------------------|------------------|------------------|
------------------|------------------|------------------|------------------|
------------------|------------------|------------------|------------------|
------------------|------------------|------------------|------------------|
------------------|------------------|------------------|------------------|

------------------|------------------|------------------|------------------|
------------------|------------------|------------------|------------------|
------------------|------------------|------------------|------------------|
------------------|------------------|------------------|------------------|
------------------|------------------|------------------|------------------|
------------------|------------------|------------------|------------------|

------------------|------------------|------------------|------------------|
------------------|------------------|------------------|------------------|
------------------|------------------|------------------|------------------|
------------------|------------------|------------------|------------------|
------------------|------------------|------------------|------------------|
------------------|------------------|------------------|------------------|

------------------|------------------|------------------|------------------|
------------------|------------------|------------------|------------------|
------------------|------------------|------------------|------------------|
------------------|------------------|------------------|------------------|
------------------|------------------|------------------|------------------|
------------------|------------------|------------------|------------------|

------------------|------------------|------------------|------------------|
------------------|------------------|------------------|------------------|
------------------|------------------|------------------|------------------|
------------------|------------------|------------------|------------------|
------------------|------------------|------------------|------------------|
------------------|------------------|------------------|------------------|

------------------|------------------|------------------|------------------|
------------------|------------------|------------------|------------------|
------------------|------------------|------------------|------------------|
------------------|------------------|------------------|------------------|
------------------|------------------|------------------|------------------|
------------------|------------------|------------------|------------------|

----------------------|--------------------------|-----------------------------|
--13--------17--------|--15------13--15----17----|------13-----13--12----------|
----------------------|--------------------------|---------------------14--12--|
----------------------|--------------------------|-----------------------------|
----------------------|--------------------------|-----------------------------|
----------------------|--------------------------|-----------------------------|

----------------------------|----------------------|--------------------------|
--15--------15--17--15--13--|--13--------17--------|--15------13--15----17----|
----------------------------|----------------------|--------------------------|
----------------------------|----------------------|--------------------------|
----------------------------|----------------------|--------------------------|
----------------------------|----------------------|--------------------------|

-----------------------------|----------------------------|--------------------|
------13-----13--12----------|--15--------15--17--15--13--|--------------------|
---------------------14--12--|----------------------------|--12b---------------|
-----------------------------|----------------------------|--------------------|
-----------------------------|----------------------------|--------------------|
-----------------------------|----------------------------|--------------------|

--------------------|--------------------|--------------------|
--------------------|--------------------|--12r---------------|
--12----------------|--------------------|--------------------|
--------------------|--12----------------|--------------------|
--------------------|--------------------|--------------------|
--------------------|--------------------|--------------------|

--------------------|--------------------|--------------------|
--------------------|--------------------|--------------------|
--12b---------------|--12----------------|--------------------|
--------------------|--------------------|--12----------------|
--------------------|--------------------|--------------------|
--------------------|--------------------|--------------------|

--------------------|--------------------|--------------------|
--12r---------------|--------------------|--------------------|
--------------------|--12b---------------|--12----------------|
--------------------|--------------------|--------------------|
--------------------|--------------------|--------------------|
--------------------|--------------------|--------------------|

--------------------|--------------------|--------------------|
--------------------|--12r---------------|--------------------|
--------------------|--------------------|--12b---------------|
--12----------------|--------------------|--------------------|
--------------------|--------------------|--------------------|
--------------------|--------------------|--------------------|

--------------------|--------------------|--------------------|
--------------------|--------------------|--12r---------------|
--12----------------|--------------------|--------------------|
--------------------|--12----------------|--------------------|
--------------------|--------------------|--------------------|
--------------------|--------------------|--------------------|

----------------------|-------------------------|----------------------|
----------------------|-------------------------|----------------------|
----------------------|-------------------------|----------------------|
------------12b-------|--12--------12--10--9----|------------15b-------|
--12------------------|-------------------------|--12------------------|
----------------------|-------------------------|----------------------|

--------------------------|----------------------|-------------------------|
--------------------------|----------------------|-------------------------|
--------------------------|----------------------|-------------------------|
--16--------16--14--12----|------------12b-------|--12--------12--10--9----|
--------------------------|--12------------------|-------------------------|
--------------------------|----------------------|-------------------------|

----------------------|--------------------------|
----------------------|--------------------------|
----------------------|--------------------------|
------------15b-------|--16--------16--14--12----|
--12------------------|--------------------------|
----------------------|--------------------------|

--------------------------------|------------------|
--------------------------------|------------------|
--------------------------------|------------------|
----------14--15--14------------|------------------|
--12--15----------------15h-12--|------------------|
--------------------------------|------------------|

--------------------------------|------------------|
--------------------------------|------------------|
--------------------------------|------------------|
----------14--15--14------------|------------------|
--12--15----------------15h-12--|------------------|
--------------------------------|------------------|

------------------------------------|--------------------|
------------------------------------|--------------------|
--12--------------12----------------|--------------------|
------12--14--15--------14h-15h-14--|--12----------------|
------------------------------------|--------------------|
------------------------------------|--------------------|

------------------------------------|--------------------|
------------------------------------|--------------------|
--12--------------12----------------|--------------------|
------12--14--15--------14h-15h-14--|--12----------------|
------------------------------------|--------------------|
------------------------------------|--------------------|

----------------------------------|--------------------------------------|
----------------------------------|--------------------------------------|
----------------------------------|--------------------------------------|
------14--12----------------------|-----------------12h14----14h-12------|
--12----------15--12--15--14------|--12----12h14h15------------------15--|
------------------------------15--|--------------------------------------|

----------------------------------|--------------------------------------|
----------------------------------|--------------------------------------|
----------------------------------|--------------------------12----------|
------14--12----------------------|-----------------12h14--------14------|
--12----------15--12--15--14------|--12----12h14h15------------------15--|
------------------------------15--|--------------------------------------|

------------------------------------|------------------------------------|
------------------------------------|------------------------------------|
--12--------12--15--17--15h-17h-15--|--12--------12--14--15--14h-15h-14--|
--------13--------------------------|--------13--------------------------|
------------------------------------|------------------------------------|
------------------------------------|------------------------------------|

------------------------------------|------------------------------------|
------------------------------------|------------------------------------|
--12--------12--15--17--15h-17h-15--|--12--------12--14--15--14h-15h-14--|
--------13--------------------------|--------13--------------------------|
------------------------------------|------------------------------------|
------------------------------------|------------------------------------|

------------------------------------|------------------------------------|
------15-13---------------------13--|------15-13-------------13----------|
--12--------15--14--12--14--15------|--12--------15--14--12------14------|
------------------------------------|--------------------------------15--|
------------------------------------|------------------------------------|
------------------------------------|------------------------------------|

--------------------------------------|-----------------------15---------|
--15-13-15--16--15-13-15--13----------|-----------------13-15------------|
------------------------------15--14--|--12----12-14-15------------------|
--------------------------------------|----------------------------------|
--------------------------------------|----------------------------------|
--------------------------------------|----------------------------------|

--------------------------|--------------------------|
--------------------------|--------------------------|
--12----12--14--14b-------|--------------------------|
--------------------------|--13----13--15--15b-------|
--------------------------|--------------------------|
--------------------------|--------------------------|

------------------------------------|----------------------------------|
--------------------13--------------|----------------------------------|
--15-14-12--14--15------14------14--|--15-14-12--14------12------------|
----------------------------15------|----------------15-------------12-|
------------------------------------|----------------------------13----|
------------------------------------|----------------------------------|

------------------------------|------------------------|
------------------------------|------------------------|
---------------------------12/|--10--------------------|
--15----12---------12-15------|---------------------12-|
--------------13--------------|------------------13----|
------------------------------|------------------------|

------------------------------|------------------------|
------------------------------|------------------------|
    

© Авторские права на тексты, песни, видео и другую представленную информацию принадлежат правообладателям. Аккорды, табы, gtp и тексты песен взяты из открытых источников.
Возрастная категория сайта: 18+
Тексты некоторых песен могут содержать нецензурные выражения, брань.
© 2020 guitar-chords.ru