Standard tuning. eBGDAE
Guitar1 & Guitar2 - distortion

Riff1(0:00-0:13)
e||------------|--------------------------|----------------------------------|
B||------------|--------------------------|----------------------------------|
G||------------|*-5--5--5--5--5--5--5--5--|--10--10--10--10--10--10--10--10--|
D||----5--3----|*-5--5--5--5--5--5--5--5--|--10--10--10--10--10--10--10--10--|
A||----5--3----|--3--3--3--3--3--3--3--3--|--8---8---8---8---8---8---8---8---|
E||----3--1----|--------------------------|----------------------------------|
                                                  2x
--------------------------|-------------------------||
--------------------------|-------------------------||
--------------------------|------------------------*||
--5--5--5--5--5--5--5--5--|--5--x--x--x--x--3--3---*||
--5--5--5--5--5--5--5--5--|--5--x--x--x--x--3--3----||
--3--3--3--3--3--3--3--3--|--3--x--x--x--x--1--1----||

Riff2(0:13-0:40)                                       4x
e||--------------------------|--------------------------|
B||--------------------------|--------------------------|
G||*-5--5--5--5--5--5--5--5--|--------------------------|
D||*-5--5--5--5--5--5--5--5--|--5--5--5--5--5--5--5--5--|
A||--3--3--3--3--3--3--3--3--|--5--5--5--5--5--5--5--5--|
E||--------------------------|--3--3--3--3--3--3--3--3--|

--------------------------|--------------------------|
--------------------------|--------------------------|
--------------------------|-------------------------*|
--3--3--3--3--3--3--3--3--|--5--5--5--5--5--5--5--5-*|
--3--3--3--3--3--3--3--3--|--5--5--5--5--5--5--5--5--|
--1--1--1--1--1--1--1--1--|--3--3--3--3--3--3--3--3--|

Riff3(0:40-0:56)
e||--------------------------|--------------------------|
B||--------------------------|--------------------------|
G||*-5--5--5--5--5--5--5--5--|--5--5--5--5--5--5--5--5--|
D||*-5--5--5--5--5--5--5--5--|--5--5--5--5--5--5--5--5--|
A||--3--3--3--3--3--3--3--3--|--3--3--3--3--3--3--3--3--|
E||--------------------------|--------------------------|
                                                  2x
--------------------------|--------------------------|-----|
--------------------------|--------------------------|-----|
--------------------------|-------------------------*|--5--|
--5--5--5--5--5--5--5--5--|--3--3--3--3--3--3--3--3-*|--5--|
--5--5--5--5--5--5--5--5--|--3--3--3--3--3--3--3--3--|--3--|
--3--3--3--3--3--3--3--3--|--1--1--1--1--1--1--1--1--|-----|

Riff4(0:56-1:13)
e||---------------------------|-----------------------------|
B||---------------------------|-----------------------------|
G||*-5--5--5--5--5--5--5--10--|--10--10--10--9--9--9--9--9--|
D||*-5--5--5--5--5--5--5--10--|--10--10--10--9--9--9--9--9--|
A||--3--3--3--3--3--3--3--8---|--8---8---8---7--7--7--7--7--|
E||---------------------------|-----------------------------|
                                                 2x
--------------------------|-------------------------|
--------------------------|-------------------------|
--7--7--7--7--7--7--7--7--|--7---------------------*|
--7--7--7--7--7--7--7--7--|--7--x--x--x--x--3--3---*|
--5--5--5--5--5--5--5--5--|--5--x--x--x--x--3--3----|
--------------------------|-----x--x--x--x--1--1----|

Riff2 } 2x
Riff3 } 2x

Riff5(1:39-2:13)                                      6x
e||--------------------------|--------------------------||
B||--------------------------|--------------------------||
G||--5-----5-----5-----5-----|--4-----4-----7-----7----*||
D||-----5-----5-----5-----5--|-----5-----5-----5-----5-*||
A||--------------------------|--------------------------||
E||--------------------------|--------------------------||

Riff6(2:13-2:26)
e||--------------------------|--------------------------|
B||--------------------------|--------------------------|
G||*-5--5--5--5--5--5--5--5--|--5--5--5--5--5--5--5--5--|
D||*-5--5--5--5--5--5--5--5--|--5--5--5--5--5--5--5--5--|
A||--3--3--3--3--3--3--3--3--|--3--3--3--3--3--3--3--3--|
E||--------------------------|--------------------------|
                                                  2x
--------------------------|--------------------------||
--------------------------|--------------------------||
--------------------------|-------------------------*||
--5--5--5--5--5--5--5--5--|--3--3--3--3--3--3--3--3-*||
--5--5--5--5--5--5--5--5--|--3--3--3--3--3--3--3--3--||
--3--3--3--3--3--3--3--3--|--1--1--1--1--1--1--1--1--||

Riff7(2:26-2:49)                                      2x
e||--------------------------|--------------------------|
B||--------------------------|--------------------------|
G||--5--5--5--5--5--5--5--5--|--5--5--5--5--5--5--5--5--|
D||--5--5--5--5--5--5--5--5--|--5--5--5--5--5--5--5--5--|
A||--3--3--3--3--3--3--3--3--|--3--3--3--3--3--3--3--3--|
E||--------------------------|--------------------------|

--------------------------|------------------------||
--------------------------|------------------------||
--------------------------|-----------------------*||
--5--5--5--5--5--5--5--5--|--x--x--3----x--x--3---*||
--5--5--5--5--5--5--5--5--|--x--x--3----x--x--3----||
--3--3--3--3--3--3--3--3--|--x--x--1----x--x--1----||


© Авторские права на тексты, песни, видео и другую представленную информацию принадлежат правообладателям. Аккорды, табы, gtp и тексты песен взяты из открытых источников.
Возрастная категория сайта: 18+
Тексты некоторых песен могут содержать нецензурные выражения, брань.
© 2020 guitar-chords.ru