Always

e|---------------------------
B|---------------------------
G|--4------3-----------------
D|--4-x8---4-x8---6----------
A|--2------1------6-x12------
E|----------------4----------
 .......................

Pre-Chorus/Post-Chorus
e|----------------------------------------
B|----------4-------4------------4------4-
G|-----4-------4------------4------4------
D|----------------------------------------
A|-2-2---2-------2------4-4---4-------4---
E|----------------------------------------

e|------------------------------------------
B|-----------4--------4---------------------
G|-----4--------4---------------4---------4-
D|------------------------------------------
A|------------------------------------------
E|-4-4----4--------4-------0-0-----0-0-0----

Chorus
e|-----------------------------------------
B|-----------------------------------------
G|-4------8--------------------------------
D|-4-x8---x-x8----6-------2----------------
A|-2------6-------6-x8----2-x8-------------
E|----------------4-------0----------------

2nd Verse (Tom uses an some effect here)
e|-------------------------------
B|-------------------------------
G|-------------------------------
D|-------------------------------
A|-------------------------------
E|-7--7--4--6--6--2--4--4--2--4--

The next two parts are the interlude

(2 guitars)
Interlude/Bridge
1st Guitar - repeat this over and over
e|-------------------------------------------------
B|-4-----4-----4-----4---5--4-----4-----4-----4--5-
G|----4-----4-----4------------4-----4-----4-------
D|-------------------------------------------------
A|-------------------------------------------------
E|-------------------------------------------------

e|-------------------------------------------------
B|-4-----4-----4-----4--5--4----4--5--4----2--4----
G|----4-----4-----4-----------4---------4----------
D|-------------------------------------------------
A|-------------------------------------------------
E|-------------------------------------------------

2nd Guitar
e|---------------------------------------
B|---------------------------------------
G|-4-------3-------4-------8------4------
D|-x-x8----x-x8----x-x8----x-x4---x-x4---
A|-2-------1-------2-------6------2------
E|---------------------------------------

then 2nd guitar plays this by himself twice
e|-------------------
B|-------------------
G|-4-/-6---8---6---4-
D|-x---x---x---x---x-
A|-2-/-4---6---4---2-
E|-------------------

© Авторские права на тексты, песни, видео и другую представленную информацию принадлежат правообладателям. Аккорды, табы, gtp и тексты песен взяты из открытых источников.
Возрастная категория сайта: 18+
Тексты некоторых песен могут содержать нецензурные выражения, брань.
© 2020 guitar-chords.ru