Dammit

A kick ass song.
Intro (Used sparking during the chorus, listen to the song)

  N.C 
e------------------------------------------------|
B------------------------------------------------|
G------------------------------------------------|
D------0-0-2---0-0-2----0-0-2----2-2-0-----------|
A--3-3----------------0--------------------------|
E------------3----------------1------------------|

This riff is played in the whole song (P.M. on third time)

   C5        G5        A5         F5 
e---------------------------------------------------|
B---------------------------------------------------|
G--5-5-5-5-------------2-2-2-2----------------------|
D--5-5-5-5---5-5-5-5---2-2-2-2---3-3-3-3------------|
A--3-3-3-3---5-5-5-5---0-0-0-0---3-3-3-3------------|
E------------3-3-3-3-------------1-1-1-1------------|

It's alright/to tell me/what you think/about me
I won't try/to argue/or hold it/against you
I know that/you're leaving/you must have/your reasons
The season/is calling/and your pictures/are falling down
The steps that/I retrace/a sad look/on your face
The timing/and structure/did you hear/he fucked her?
A day late/a buck short/I'm writing/the report
I'm losing/and failing/when I move/I'm failing now
Chorus
And it's happened once again
I'll turn to a friend
Someone that understands
Sees through the master plan
But everybody's gone
And I've been here for too long
To face this on my own
Well I guess this is growing up
Well I guess this is growing up
And maybe/I'll see you/at a movie/sneak preview
You'll show up/and walk by/on the arm/of that guy
And I'll smile/and you'll wave/we'll pretend/it's okay
The charade/it won't last/when he's gone/I won't come back
Back to Chorus
Well, I guess this is growing up } 2x
Well, I guess this is growing up


© Авторские права на тексты, песни, видео и другую представленную информацию принадлежат правообладателям. Аккорды, табы, gtp и тексты песен взяты из открытых источников.
Возрастная категория сайта: 18+
Тексты некоторых песен могут содержать нецензурные выражения, брань.
© 2020 guitar-chords.ru