Feeling This

ok here we go......
drums start out then here
e----------------------------------------------------------------------------
B----------------------------------------------------------------------------
G----------------------------11-9-9-9-9--9-13-11-9-9-9-9-9-13-11-9-9-9-9-9-13
D-----------------------------x-x-x-x-x--x-x--x-x-x-x-x--x--x-x--x-x-x-x-x-x-
A9-7-7-7-7-7-11-9-7-7-7-7-7-11-9-7-7-7-7--7-11-9-7-7-7-7--7-11-9-7-7-7-7-7 11
E----------0--------------0---------------0---------------0---------------0--
continued...
e--------------
B--------------
G11-9-9-9-9--9-
D-x-x-x-x-x--x- } repeat 4 more times
A-9-7-7-7-7--7-
E-----------0--

e--
B--
G--
D-9
A-7 } on place and fate
E-0

*FATE* fell short this time smile fades in the summer *PLACE* your hand in mine
and i'll leave when i wanna
e-----------------------------------------------------------------------
B-----------------------------------------------------------------------
G-9-9-9-9-9-9-9-9-11-11-11-11-11-11-13-13-13-13-13-13-14-14-14-14-14-14-
D-x-x-x-x-x-x-x-x-x--x--x--x--x--x--x--x--x--x--x--x--x--x--x--x--x--x--
A-7-7-7-7-7-7-7-7-9--9--9--9--9--9--11-11-11-11-11-11-12-12-12-12-12-12-
E-----------------------------------------------------------------------

e----------------------------------------------------------------------------
B----------------------------------------------------------------------------
G----------------------------11-9-9-9-9--9-13-11-9-9-9-9-9-13-11-9-9-9-9-9-13
D-----------------------------x-x-x-x-x--x-x--x-x-x-x-x--x--x-x--x-x-x-x-x-x-
A9-7-7-7-7-7-11-9-7-7-7-7-7-11-9-7-7-7-7-7-11-9-7-7-7-7-7-11-9-7-7-7-7-7-11
E----------0--------------0---------------0---------------0---------------0--
       ^ is the same as the beginging so just repeat the beginging

e-------------------------------------
B-------------------------------------
G-------------------------------------
D----6---6-----6----------------------

© Авторские права на тексты, песни, видео и другую представленную информацию принадлежат правообладателям. Аккорды, табы, gtp и тексты песен взяты из открытых источников.
Возрастная категория сайта: 18+
Тексты некоторых песен могут содержать нецензурные выражения, брань.
© 2020 guitar-chords.ru