First date

Intro:        
(Guitar One)
E||-----------------|-----------------|------------------|------------------||
B||-----------------|-----------------|------------------|------------------||
G||-9-5-5-5-5-5-5-5-|-7-5-5-5-5-5-5-5-|-7-5-5-5-5-5-5-5--|-7-5-----4--------||
D||-----------------|-----------------|------------------|------------------||
A||-----------------|-----------------|------------------|------------------||
E||-----------------|-----------------|------------------|------------------||

(Guitar Two) } x2
     C5                D5                F5                 G5 
E||-----------------|-----------------|------------------|------------------||
B||-----------------|-----------------|------------------|------------------||
G||-5-5-5-5-5-5-5-5-|-7-7-7-7-7-7-7-7-|-1010101010101010-|-1212121212121212-||
D||-5-5-5-5-5-5-5-5-|-7-7-7-7-7-7-7-7-|-1010101010101010-|-1212121212121212-||
A||-3-3-3-3-3-3-3-3-|-5-5-5-5-5-5-5-5-|-8-8-8-8-8-8-8-8--|-1010101010101010-||
E||-----------------|-----------------|------------------|------------------||

"In the car I just can't wait..."
     C5 
E||------------|
B||------------|
G||-5----------|
D||-5--.......-|
A||-3----------|
E||------------|
"Do you like my stupid hair?"
    (--------------------------Palm-Muted-------------------------)
E||-------|-------|-------|-------|-------|-------|-------|-------|
B||-------|-------|-------|-------|-------|-------|-------|-------|
G||-5-5-5-|-5-5-5-|-5-5-5-|-5-5-5-|-5-5-5-|-5-5-5-|-5-5-5-|-5-5-5-| } x2
D||-------|-------|-------|-------|-------|-------|-------|-------|
A||-------|-------|-------|-------|-------|-------|-------|-------|
E||-------|-------|-------|-------|-------|-------|-------|-------|

Pre Chorus:               "Let's go..."    "Don't wait.."
     C5                C/G5              A5                F5      G5 
E||-----------------|-----------------|-----------------|-----------------|
B||-----------------|-----------------|-----------------|-----------------|
G||-5-5-5-----------|-4-4-4-----------|-2-2-2-2-2-2-2-2-|-----------------| } x2
D||-5-5-5-----------|-5-5-5-----------|-2-2-2-2-2-2-2-2-|-3---3-/-5---5---|
A||-3-3-3-----------|-2-2-2-----------|-0-0-0-0-0-0-0-0-|-3---3-/-5---5---|
E||-----------------|-----------------|-----------------|-1---1-/-3---3---|

Chorus:        
            "Forever, and ever..."
     C5                C/G5              A5                F5      G5 
E||-----------------|-----------------|-----------------|-----------------|
B||-----------------|-----------------|-----------------|-----------------|
G||-5---5---5-5-5---|-4---4---4-4-4---|-2---2---2-2-2---|-3---3-/-5---5---| } x2
D||-5---5---5-5-5---|-5---5---5-5-5---|-2---2---2-2-2---|-3---3-/-5---5---|
A||-3---3---3-3-3---|-2---2---2-2-2---|-0---0---0-0-0---|-1---1-/-3---3---|
E||-----------------|-----------------|-----------------|-----------------|

Interulde:    
(Guitar One)
       C5                E5                F5                G5 
      (----------------------------Palm-Muted-----------------------------)
E||-----------------|-----------------|-----------------|-----------------|
B||-----------------|-----------------|-----------------|-----------------|
G||---5-5-5-5-5-5-5-|-----------------|-----------------|-----------------| } x2
D||---5-5-5-5-5-5-5-|---2-2-2-2-2-2-2-|---3-3-3-3-3-3-3-|---5-5-5-5-5-5-5-|
A||---3-3-3-3-3-3-3-|---2-2-2-2-2-2-2-|---3-3-3-3-3-3-3-|---5-5-5-5-5-5-5-|
E||-----------------|---0-0-0-0-0-0-0-|---1-1-1-1-1-1-1-|---3-3-3-3-3-3-3-|

(Guitar Two w/ Guitar One)
       C5                E5        C5      F5        C5      D5 
(*)
E||-----------------|-----------------|-----------------|-----------------|-----
B||-----------------|-----------------|-----------------|-----------------|-----
G||---5-5-5-5-5-5-5-|---9-9-9-9-\-5-5-|---10101010\-5-5-|---7-7-7-7-7-7-7-|-7\5- } x4
D||---5-5-5-5-5-5-5-|---9-9-9-9-\-5-5-|---10101010\-5-5-|---7-7-7-7-7-7-7-|-7\5-
A||---3-3-3-3-3-3-3-|---7-7-7-7-\-3-3-|---8-8-8-8-\-3-3-|---5-5-5-5-5-5-5-|-5\3-
E||-----------------|-----------------|-----------------|-----------------|-----

Outro:        
            "Forever, and ever..."
(Guitar One)
E||-----------------|-----------------|-----------------|-----------------| |
B||-----------------|-----------------|-----------------|-----------------| |
G||-9-5-5-5-5-5-5-5-|-7-5-5-5-5-5-5-5-|-7-5-5-5-5-5-5-5-|-7-5-5-5-7-5-5-5-| |
D||-----------------|-----------------|-----------------|-----------------| |
A||-----------------|-----------------|-----------------|-----------------| |
E||-----------------|-----------------|-----------------|-----------------| |

(Guitar Two)
 } x2
     C5                C/G5              A5                F5      G5 
E||-----------------|-----------------|-----------------|-----------------| |
B||-----------------|-----------------|-----------------|-----------------| |
G||-5---5---5-5-5---|-4---4---4-4-4---|-2---2---2-2-2---|-3---3-/-5---5---| |
D||-5---5---5-5-5---|-5---5---5-5-5---|-2---2---2-2-2---|-3---3-/-5---5---| |
A||-3---3---3-3-3---|-2---2---2-2-2---|-0---0---0-0-0---|-1---1-/-3---3---| |
E||-----------------|-----------------|-----------------|-----------------| |

(Guitar One)
E||--------------------------|
B||--------------------------|
G||-5--.....................-|
D||--------------------------|
A||--------------------------|
E||--------------------------|

(Guitar Two w/ Guitar One)
E||--------------------------|
B||--------------------------|
G||-5------------------------|
D||-5--.....................-|
A||-3------------------------|
E||--------------------------|

© Авторские права на тексты, песни, видео и другую представленную информацию принадлежат правообладателям. Аккорды, табы, gtp и тексты песен взяты из открытых источников.
Возрастная категория сайта: 18+
Тексты некоторых песен могут содержать нецензурные выражения, брань.
© 2020 guitar-chords.ru