Obviours

Intro:        
E ------------------------
B ------------------------
G ------6-----2-2-2-2-----
D ------x-----2-2-2-2-----
A -2/4--4-(0)-0-0-0-0-----
C#-0/0--0-(0)-0-0-0-0-----

Verse:        
Just play these chords at the start of each bar; the verse is mainly mark’s bass:
E -------------
B -------------
G --6---2------
D --6---2------
A --4---0------
C#--0---0------

Chorus:        
E ----------------------------------------
B ----------------------------------------
G ----------------------------------------
D --2-------------------------------------
A --2-------------------------------------
C#--3-(let ring)--333-777-555-88-00-333---

Bridge:        
Note: Tom uses some cool effects during the build up to this bridge
but I doubt he’ll use them live.
E ------------------------------
B ------------------------------
G -999-222-666-1010-99-1010-----
D -999-222-666-1010-99-1010-----
A -777-000-444-8-8--77-8-8------
C#------------------------------

Outro:        
E --------------------------------------
B --------------------------------------
G -9999999999999999-9999999999999999----
D -xxxxxxxxxxxxxxxx-xxxxxxxxxxxxxxxx----
A -7777777777777777-6666666666666666----
C#--------------------------------------

End on:        E ----
B ----
G ----
D -2--
A -2--
C#-3--

© Авторские права на тексты, песни, видео и другую представленную информацию принадлежат правообладателям. Аккорды, табы, gtp и тексты песен взяты из открытых источников.
Возрастная категория сайта: 18+
Тексты некоторых песен могут содержать нецензурные выражения, брань.
© 2020 guitar-chords.ru