Stockholm Syndrome

guitar 1:    E|----------------------------------------|
B|----------------------------------------|
G|--------------------------------0---0-4-|
D|--------------5/9~~~------------|
A|----------------------------------------|
E|----------------------------------------|

guitar 2:    E|----------------------------------------|
B|----------------------------------------|
G|----------------------------2222--------|
D|-2222-----5555-----5555-----2222--------|
A|-2222-----3333-----2222-----0000--------|
E|-0000-----------------------------------|

guitar 1:    E|---------7~-----7~-----7~-----7~~~|
B|----8-8------8-8------8-8------8-8--------|
G|--------7--------7--------7--------7------|
D|------------------------------------------|
A|------------------------------------------|
E|------------------------------------------|

guitar 2:    E|------------------------------------------|
B|------------------------------------------|
G|----------------------------2222-55555555-|
D|-2222-----5555-----5555-----2222-xxxxxxxx-|
A|-2222-----3333-----2222-----0000-33333333-|
E|-0000-------------------------------------|

guitar 2:    E|----------------------------------------------------------------------|
B|----------------------------------------------------------------------|
G|----------------------------------------------------22222222----------|
D|-2222222222222222-5555555555555555-5555555555555555-22222222-44444444-|
A|-2222222222222222-3333333333333333-2222222222222222-00000000-xxxxxxxx-|
E|-0000000000000000--------------------------------------------22222222-|

E|------------------------------------------------------------------------|
B|------------------------------------------------------------------------|
G|----------------------------------------------------22222222-55555555---|
D|-2222222222222222-5555555555555555-5555555555555555-22222222-xxxxxxxx---|
A|-2222222222222222-3333333333333333-2222222222222222-00000000-33333333---|
E|-0000000000000000-----------------------------------------------------0-|

guitar 2:    E|----------------------|
B|----------------------|
G|----------------------|
D|-5555544/555555555---|
A|-xxxxxxx/xxxxxxxxx---| } 2x
E|-3333322/333333333-0-|

guitar 2:    E|-------------------------------------------------------|
B|-------------------------------------------------------|
G|-------------------------------------------------------|
D|-5555544/555555555-5/77/9955-55-4-5555544/555555555-|
A|-xxxxxxx/xxxxxxxxx-x/xx/xxxx-xx-x-xxxxxxx/xxxxxxxxx-| } 2x
E|-3333322/333333333-3/33/3333-33-2-3333322/333333333-|

guitar 1:    E|------------------------------------------------------------------|
B|------------------------------------------------------------------|
G|------------------------------------------------------------------|
D|------------------------------------------------------------------|
A|------------------------------------------------------------------|
E|---------------------3322333--------------------------------------|
                       p.m.___

guitar 2:    E|------------------------------------------------------------------|
B|------------------------------------------------------------------|
G|------------------------------------------------------------------|
D|------------------------------------------------------------------|
A|------------------------------------------------------------------|
E|-7777777777777887788888888888888877777777777777775555555533333333-|
   p.m._____________________________________________________________

guitar 1:    E|---5~3---2-3~---5~3~--2-3-|
B|-3-3~-3~------|
G|------------------------------------------------------------------|
D|------------------------------------------------------------------|
A|------------------------------------------------------------------|
E|------------------------------------------------------------------|

guitar 2:    E|------------------------------------------------------------------|
B|------------------------------------------------------------------|
G|------------------------------------------------------------------|
D|------------------------------------------------------------------|
A|------------------------------------------------------------------|
E|-7777777777777887788888888888888877777777777777775555555533333333-|
   p.m._____________________________________________________________

guitar 1:    E|---5~3-7-2-3~---7~2~37-2-3|
B|-3~~--------------------------------------------------|
G|------------------------------------------------------------------|
D|------------------------------------------------------------------|
A|------------------------------------------------------------------|
E|------------------------------------------------------------------|

guitar 2:    E|------------------------------------------------------------------|
B|------------------------------------------------------------------|
G|------------------------------------------------------------------|
D|------------------------------------------------------------------|
A|------------------------------------------------------------------|
E|-777777777777788778888888888888887777777777777777555555553~~~-|
   p.m._____________________________________________________________

guitar 2:    E|------------------------------------------------------------------|
B|------------------------------------------------------------------|
G|-444444444444444455555555555555554444444444444444-----------------|
D|-xxxxxxxxxxxxxxxxxxxxxxxxxxxxxxxxxxxxxxxxxxxxxxxx7777777755555555-|
A|-222222222222222233333333333333332222222222222222xxxxxxxxxxxxxxxx-| } 2x
E|-------------------------------------------------5555555533333333-|

guitar 2:    E|----------------------------------------------------------------------|
B|----------------------------------------------------------------------|
G|----------------------------------------------------22222222----------|
D|-2222222222222222-5555555555555555-5555555555555555-22222222-44444444-|
A|-2222222222222222-3333333333333333-2222222222222222-00000000-xxxxxxxx-|
E|-0000000000000000--------------------------------------------22222222-|

guitar 1:    E|-----------7~-----7~-----7~-----7~-----7~-----7~-----7|
B|------8-8------8-8------8-8------8-8------8-8------8-8------8-8-------|
G|----------7--------7--------7--------7--------7--------7--------7-----|
D|----------------------------------------------------------------------|
A|----------------------------------------------------------------------|
E|----------------------------------------------------------------------|

guitar 2:    E|----------------------------------------------------------------------|
B|----------------------------------------------------------------------|
G|----------------------------------------------------22222222-55555555-|
D|-2222222222222222-5555555555555555-5555555555555555-22222222-xxxxxxxx-|
A|-2222222222222222-3333333333333333-2222222222222222-00000000-33333333-|
E|-0000000000000000-----------------------------------------------------|

guitar 2:    E|-------------------|
B|-------------------|
G|-------------------|
D|-2~|
A|-2~|
E|-0~|

© Авторские права на тексты, песни, видео и другую представленную информацию принадлежат правообладателям. Аккорды, табы, gtp и тексты песен взяты из открытых источников.
Возрастная категория сайта: 18+
Тексты некоторых песен могут содержать нецензурные выражения, брань.
© 2020 guitar-chords.ru