The Rock Show

G---------------------------------+----------------------------
D------2---0----------------------+----2-------0------4--------
A-0------------4--0-----0---0---0-+-0-----0-0-----0-0----2---4-
E--------------------2------------+----------------------------
==Ритм==========================================================
G-2-2-2-2-2-2-2-2-2-2-2-2-2-2-2-2-|-7-7-7-7-7-7-7-7-9-9-9-9-9-9-
D-2-2-2-2-2-2-2-2-2-2-2-2-2-2-2-2-|-7-7-7-7-7-7-7-7-9-9-9-9-9-9-
A-0-0-0-0-0-0-0-0-0-0-0-0-0-0-0-0-|-5-5-5-5-5-5-5-5-7-7-7-7-7-7-
=Бас============================================================
A-0--0--0--0--0--0--0--0----------|-5--5--5--5--7--7--7--7-----
==соло==========================================================
D-7-7-7-7--7-7-7-7--7-7-7-7--7-7-7-7
A-7-7-7-7--7-7-7-7--7-7-7-7--7-7-7-7
E-5-5-5-5--5-5-5-5--5-5-5-5--5-5-5-5
===================================
A-7-7-7-7--7-7-7-7--9-9-9-9--9-9-9-9
D-7-7-7-7--7-7-7-7--9-9-9-9--9-9-9-9
G-5-5-5-5--5-5-5-5--7-7-7-7--7-7-7-7
ПОТОМ C НАЧАЛА

© Авторские права на тексты, песни, видео и другую представленную информацию принадлежат правообладателям. Аккорды, табы, gtp и тексты песен взяты из открытых источников.
Возрастная категория сайта: 18+
Тексты некоторых песен могут содержать нецензурные выражения, брань.
© 2020 guitar-chords.ru