Violence

Intro (Distorted):
e|---------------------|
B|---------------------|
G|---------------------|
D|-777-7--777-7--------|
A|-000-0--000-0--------|
E|-555-5--555-5--------|

Chorus (Distorted):
e|---------------------------------------------------------|
B|---------------------------------------------------------|
G|---------------------------------------------------------|
D|-777-7--7-7777-999-9--9-9999-444-4--4-4444-666-6--6-6666-|
A|-000-0--0-0000-000-0--0-0000-000-0--0-0000-000-0--0-0000-|
E|-555-5--5-5555-777-7--7-7777-222-2--2-2222-444-4--4-4444-|
*** Repeat chorus as necessary...

Bridge (Clean):
e|-----------------------------------------|
B|-----------------------------------------|
G|-----------------------------------------|
D|-----------------------------------------|
A|----7--7---------------7-----------------|
E|-5-------5-4-5--4-5-7----5-4-5--4-5-7----|
       |This part repeats several times|

*** Note: The first two notes of the bridge do not repeat,
          but the main riff does...

Chorus (Distorted):
e|---------------------------------------------------------|
B|---------------------------------------------------------|
G|---------------------------------------------------------|
D|-777-7--7-7777-999-9--9-9999-444-4--4-4444-666-6--6-6666-|
A|-000-0--0-0000-000-0--0-0000-000-0--0-0000-000-0--0-0000-|
E|-555-5--5-5555-777-7--7-7777-222-2--2-2222-444-4--4-4444-|
*** Repeat chorus as necessary...

End on:
e|---|
B|---|
G|---|
D|-7-|
A|-0-|
E|-5-|

Lyrics:        
Six bottles went down the drain
One hour's a waste of time
I'd ask if you feel the same
Still pushing that chance to try
Your breath in this cool room, chill
Long hair that goes side to side
You speak and make time stand still
And each time you walk right on by
Like violence you have me forever and after
Like violence you've killed me forever and after
Can't count all the eyes that stare
Can't count all the things they see
She kills with no life to spare
Just victims we're left to bleed
One drink and the pain goes down
Soft shadows lay by her feet
Lay soft as you slowly drown
Lay still as you fall asleep (Fall asleep...)
Like violence you have me forever and after
Like violence you've killed me forever and after
Like violence you have me forever and after
Like violence you've killed me forever and after
Like violence you have me forever and after
Like violence you've killed me forever and after

© Авторские права на тексты, песни, видео и другую представленную информацию принадлежат правообладателям. Аккорды, табы, gtp и тексты песен взяты из открытых источников.
Возрастная категория сайта: 18+
Тексты некоторых песен могут содержать нецензурные выражения, брань.
© 2020 guitar-chords.ru