Wasting time

H = Hammer On
P = Pull Off
X = palm Mute
/ = Slide up to Next Note
\ = Slide Down to Next Note

Intro:        
E|--------------------------------------------------------------------------------------|
B|--------------------------------------------------------------------------------------|
G|--------------------------------------------------------------------------------------|
D|------6--7--9--7--6-----------/7-7-7--9--6---------6------7------6--------4-----4---2-|
A|----------------------7--0-------------------5\4------4------4------4\2-----2-----2---|
E|--0-----------------------------------------------------------------------------------| } x2

(intro part 2)
E|-------------------------------------------------------------|
B|-------------------------------------------------------------|
G|-------------------------------------------------------------|
D|--x---2-2-2--------------6-6-6-6-\--4-4-4-4------------------|
A|--x---0-0-0----2-2-2-2---4-4-4-4--\-2-2-2-2------------------|
E|--x------------0-0-0-0---------------------------------------| } x3

E|----------------------------------------------------------------------
B|----------------------------------------------------------------------
G|-------------------------6-6-6-6-6-6-6-6---4-4-4-4-4-4-4-4------------
D|--x---2-2-2--------------6-6-6-6-6-6-6-6---4-4-4-4-4-4-4-4------------
A|--x---0-0-0----2-2-2-2---4-4-4-4-4-4-4-4---2-2-2-2-2-2-2-2------------
E|--x------------0-0-0-0------------------------------------------------

----------------------------5-----5-----5-----5-----5--------------------|
-------------------------5-----5-----5-----5-----5----5------------------|
-------------------------------------------------------------------------|
--2-2-2-2-2-2-2-2--------------------------------------------------------|
--0-0-0-0-0-0-0-0--------------------------------------------------------|
-------------------------------------------------------------------------|

E|--------------------------------------------------------------------------------------|
B|--------------------------------------------------------------------------------------|
G|--------------------------------------------------------------------------------------|
D|------6--7--9--7--6-----------/7-7-7--9--6---------6-----7-----6--------4----4---2----|
A|-----------------------7--0-------------------5\4-----4-----4------4\2----2----2------|
E|--0-----------------------------------------------------------------------------------|

E|-------------------------------------------------------------|
B|-------------------------------------------------------------|
G|-------------------------------------------------------------|
D|-----2-2-2-------------6-6-6-6-\--4-4-4-4--------------------|
A|-----0-0-0---2-2-2-2---4-4-4-4--\-2-2-2-2--------------------|
E|-------------0-0-0-0-----------------------------------------|

Chours:        
E|----------------------------------------------------------------------
B|----------------------------------------------------------------------
G|-------------------------6-6-6-6-6-6-6-6---4-4-4-4-4-4-4-4------------
D|--x---2-2-2--------------6-6-6-6-6-6-6-6---4-4-4-4-4-4-4-4------------
A|--x---0-0-0----2-2-2-2---4-4-4-4-4-4-4-4---2-2-2-2-2-2-2-2------------
E|--x------------0-0-0-0------------------------------------------------

----------------------------5-----5-----5-----5-----5--------------------|
-------------------------5-----5-----5-----5-----5-----------------------|
-------------------------------------------------------------------------|
--2-2-2-2-2-2-2-2--------------------------------------------------------|
--0-0-0-0-0-0-0-0--------------------------------------------------------|
-------------------------------------------------------------------------|

© Авторские права на тексты, песни, видео и другую представленную информацию принадлежат правообладателям. Аккорды, табы, gtp и тексты песен взяты из открытых источников.
Возрастная категория сайта: 18+
Тексты некоторых песен могут содержать нецензурные выражения, брань.
© 2020 guitar-chords.ru