Standard tuning: e,B,G,D,A,E
. . palm muting
l . let ring

Guitar1(clean picking) . Intro (0:00.0:24):
                                                                         3x
e||------6-------6-------6-------6----||------6-------6-------6-------6----||
B||----7---7---7---7---7---7---7---7--||----7---7---7---7---7---7---7---7--||
G||*-4-------------------------------*||*-4-------------------------------*||
D||*---------4-----------------------*||*---------4-----------------------*||
A||------------------4-------6--------||------------------4-------6--------||
E||-----------------------------------||-----------------------------------||

|-----6-------6-------6-------6---|-----6-------6-------6-------6---|
|---7---7---7---7---7---7---7---7-|---7---7---7---7---7---7---7---7-|
|-4-------------------------------|-----------------4-------4-------|
|---------4-----------------------|---------------------------------|
|-----------------4-------6-------|-4-------4-----------------------|
|---------------------------------|---------------------------------|

Guitar1(clean picking) . Riff1 (0:39-0:42)

e|------6-------6-------6-------6---|
B|----7---7---7---7---7---7---7---7-|
G|--4-------------------------------|
D|----------4-----------------------|
A|------------------4-------6-------|
E|----------------------------------|

Guitar1(clean picking) . Riff2 (1:09-1:33)

e|----6---------6----|----6---------6--------|------------------------|
B|-------7---------7-|-------7---------7--7--|------------------------|
G|-4-----------------|-4---------------------|-------3h4----------3h4-|
D|-------------------|-----------------------|-4-4-4--------4-4-4-----|
A|-------------------|-----------------------|------------------------|
E|-------------------|-----------------------|------------------------|
                                                           2x
e|------------------------||--------2---------------2--------||
B|------------------------||---------------------------------||
G|-------3h4----------3h4-||*---3-----3---3-----3-----3---3-*||
D|-4-4-4--------4-4-4-----||*-4---4-----4---4-4---4-----4---*||
A|------------------------||---------------------------------||
E|------------------------||---------------------------------||

e|----------2--------------2-------|
B|---------------------------------|
G|------3-----3---3----3-----3---3-|
D|--4-4---4-----4----4---4-----4---|
A|---------------------------------|
E|---------------------------------|

Guitar1(clean picking) . Riff3 (1:44-2:16)(Play this Riff for 2 times):
                                    3x
e||------6-------6-------6-------6----|-----6-------6-------6-------6---|
B||----7---7---7---7---7---7---7---7--|---7---7---7---7---7---7---7---7-|
G||*-4-------------------------------*|-----------------4-------4-------|
D||*---------4-----------------------*|---------------------------------|
A||------------------4-------6--------|-4-------4-----------------------|
E||-----------------------------------|---------------------------------|

Guitar2(distortion) . Riff1 (0:25-0:38)
                                 2x
e|---------------------------------||------------------------------------------------|
B|---------------------------------||------------------------------------------------|
G|*-------6-6--6-8-8--8-4-4-4-4-4-*||-------6-6--6-8-8-8-8-8-8-8-8-8/6-6-6-6-6-6-6-6-|
D|*--4--4-6-6--6-8-8--8-4-4-4-4-4-*||--4--4-6-6--6-8-8-8-8-8-8-8-8-8/6-6-6-6-6-6-6-6-|
A|---4--4-4-4--4-6-6--6-2-2-2-2-2--||--4--4-4-4--4-6-6-6-6-6-6-6-6-6/4-4-4-4-4-4-4-4-|
E|---2--2--------------------------||--2--2------------------------------------------|

Guitar2(distortion) . Riff2 (0:43-0:56)
                                   3x
e|-----------------------------------||-------------------------------------------------|
B|-----------------------------------||-------------------------------------------------|
G|*-4-4-4-4---------6-6-6-6-8-8-8-8-*||-4-4-4-4---------6-6-6-6-6-6-6-6/4-4-4-4-4-4-4-4-|
D|*-4-4-4-4-4-4-4-4-6-6-6-6-8-8-8-8-*||-4-4-4-4-4-4-4-4-6-6-6-6-6-6-6-6/4-4-4-4-4-4-4-4-|
A|--2-2-2-2-4-4-4-4-4-4-4-4-6-6-6-6--||-2-2-2-2-4-4-4-4-4-4-4-4-4-4-4-4/2-2-2-2-2-2-2-2-|
E|----------2-2-2-2------------------||---------2-2-2-2---------------------------------|
    . . . . . . . . . . . . . . . .     . . . . . . . . . . . . . . .     . . . . . . . 

Guitar2(distortion) . Riff3 (0:56-1:09)
                                3x
e|--------------------------------||-----------------------------------------------|
B|--------------------------------||-----------------------------------------------|
G|*------6-6--6-8-8--8-4-4-4-4-4-*||------6-6--6-8-8-8-8-8-8-8-8-8/6-6-6-6-6-6-6-6-|
D|*-4--4-6-6--6-8-8--8-4-4-4-4-4-*||-4--4-6-6--6-8-8-8-8-8-8-8-8-8/6-6-6-6-6-6-6-6-|
A|--4--4-4-4--4-6-6--6-2-2-2-2-2--||-4--4-4-4--4-6-6-6-6-6-6-6-6-6/4-4-4-4-4-4-4-4-|
E|--2--2--------------------------||-2--2------------------------------------------|

Guitar2(distortion) . Riff4 (1:34-2:16)
                                3x
e|--------------------------------||-----------------------------------------------|
B|--------------------------------||-----------------------------------------------|
G|*------6-6--6-8-8--8-4-4-4-4-4-*||------6-6--6-8-8-8-8-8-8-8-8-8/6-6-6-6-6-6-6-6-|
D|*-4--4-6-6--6-8-8--8-4-4-4-4-4-*||-4--4-6-6--6-8-8-8-8-8-8-8-8-8/6-6-6-6-6-6-6-6-|
A|--4--4-4-4--4-6-6--6-2-2-2-2-2--||-4--4-4-4--4-6-6-6-6-6-6-6-6-6/4-4-4-4-4-4-4-4-|
E|--2--2--------------------------||-2--2------------------------------------------|
                               3x
|--------------------------------||-----------------------------------------------|
|--------------------------------||-----------------------------------------------|
|*------6-6--6-8-8--8-4-4-4-4-4-*||------6-6--6-8-8-8-8-8-8-8-8-8/6-6-6-6-6-6-6-6-|
|*-4--4-6-6--6-8-8--8-4-4-4-4-4-*||-4--4-6-6--6-8-8-8-8-8-8-8-8-8/6-6-6-6-6-6-6-6-|
|--4--4-4-4--4-6-6--6-2-2-2-2-2--||-4--4-4-4--4-6-6-6-6-6-6-6-6-6/4-4-4-4-4-4-4-4-|
|--2--2--------------------------||-2--2------------------------------------------|
                               3x
|--------------------------------||-----------------------------------------------|---|
|--------------------------------||-----------------------------------------------|---|
|*------6-6--6-8-8--8-4-4-4-4-4-*||------6-6--6-8-8-8-8-8-8-8-8-8/6-6-6-6-6-6-6-6-|-4-|
|*-4--4-6-6--6-8-8--8-4-4-4-4-4-*||-4--4-6-6--6-8-8-8-8-8-8-8-8-8/6-6-6-6-6-6-6-6-|-4-|
|--4--4-4-4--4-6-6--6-2-2-2-2-2--||-4--4-4-4--4-6-6-6-6-6-6-6-6-6/4-4-4-4-4-4-4-4-|-2-|
|--2--2--------------------------||-2--2------------------------------------------|---|
                                                                                    l

© Авторские права на тексты, песни, видео и другую представленную информацию принадлежат правообладателям. Аккорды, табы, gtp и тексты песен взяты из открытых источников.
Возрастная категория сайта: 18+
Тексты некоторых песен могут содержать нецензурные выражения, брань.
© 2020 guitar-chords.ru