m&m's

Intro:        
e|---------------------0~-
B|------------------------
G|------------------------
D|-------7~---------------
A|-------7~---------------
E|-------5~---------------

Тут играется реально быстро:-)

e|---0-4-0-0-5-0-0-7-5-4-5-4-0----2-0-4-0-5-4-2-0-----------------
B|----------------------------------------------------------------
G|----------------------------------------------------------------
D|----------------------------------------------------------------
A|----------------------------------------------------------------
E|----------------------------------------------------------------

e|--0-0-4-0-0-5-0-0-7-5-4-5-4-0----0-2-0-0-4-0-0-2-0-4-0-2-0------|
B|----------------------------------------------------------------|
G|----------------------------------------------------------------|
D|----------------------------------------------------------------|
A|----------------------------------------------------------------|
E|----------------------------------------------------------------|

Verse:        
e|----------------------------------------------------------------------
b|----------------------------------------------------------------------
g|----9---9---9---9----9---9---9---9-----9---9---9---9----9---9---9---9-
d|------------------------------------6----6---6---6----7---7---7---7---
a|--7---7---7---7----9---9---9---9--------------------------------------
E|----------------------------------------------------------------------

E|----------------------------------------------------------------------|
B|----------------------------------------------------------------------|
G|-9~-------------------9~----------------------------------------------|
D|-9~-------------------9~----------------------------------------------|
A|-7~--9-9-7-9-7-6-7----7~--9-9-7-9-7-6---------------------------------|
E|----------------------------------------------------------------------|

Chorus:        
e|----------------------------------------------------------|
b|----------------------------------------------------------|
g|----------------------------------------------4--4-4--4-4-|
d|-4--4-4--4-4----7--7-7--7-7----2--2-2--2-2----4--4-4--4-4-|
a|-4--4-4--4-4----7--7-7--7-7----2--2-2--2-2----2--2-2--2-2-|
E|-2--2-2--2-2----5--5-5--5-5----0--0-0--0-0----------------|

Bridge:        
e|--------------------------------------------------------
b|--------------------------------------------------------
g|-9--9--9--9-9----------------6--6--6--6-6---------------
d|-9--9--9--9-9--9--9--9--9-9--6--6--6--6-6--7--7--7--7-7-
a|-7--7--7--7-7--9--9--9--9-9--4--4--4--4-4--7--7--7--7-7-
E|---------------7--7--7--7-7----------------5--5--5--5-5-

e|--------------------------------------------------------|
b|--------------------------------------------------------|
g|-----------------------------6--6--6--6-6---------------|
d|-2--2--2--2-2--9--9--9--9-9--6--6--6--6-6--7--7--7--7-7-|
a|-2--2--2--2-2--9--9--9--9-9--4--4--4--4-4--7--7--7--7-7-|
E|-0--0--0--0-0--7--7--7--7-7----------------5--5--5--5-5-|

e|-----------------------------------------------------|
b|-----------------------------------------------------|
g|----9------------------------------------------------|
d|----9------------------------------------------------|
a|----7..........--------------------------------------|
E|-----------------------------------------------------|

e|----------------------|
B|----------------------|
G|----------------------|
D|--2-------------------|
A|--2-------------------|
E|--0-------------------|

© Авторские права на тексты, песни, видео и другую представленную информацию принадлежат правообладателям. Аккорды, табы, gtp и тексты песен взяты из открытых источников.
Возрастная категория сайта: 18+
Тексты некоторых песен могут содержать нецензурные выражения, брань.
© 2020 guitar-chords.ru