Going Nowhere Slow

Tuning: Standard (E A D G B E)
yo tres cool biggit GX posyyyyyyyyy+-
INTRO:
e|--------------------------------------------------------------------|
B|--------------------------------------------------------------------|
G|-----------------4---4-4-4-4-4-4-4----------------------------------|
D|-2---2-2-2-2-2-2-4---4-4-4-4-4-4-4-6/7-7-7--6/7-7-7--6/7-7-4--4-4-4-|
A|-2---2-2-2-2-2-2-2---2-2-2-2-2-2-2-6/7-7-7--6/7-7-7--6/7-7-4--4-4-4-|
E|-0---0-0-0-0-0-0-------------------4/5-5-5--4/5-5-5--4/5-5-2--2-2-2-|
VERSE: (same as INTRO)
PRE-CHORUS: ("Bloodhound boys, bloodhound girls,...")
e|-----------------------------------------|
B|-----------------------------------------|
G|-----------------------------------------|
D|-7-9-11----7-9-11----7-9-11----7-9-11----|
A|-7-9-11----7-9-11----7-9-11----7-9-11----|
E|-5-7--9----5-7--9----5-7--9----5-7--9----|
CHORUS: (same as INTRO)
BRIDGE:
e|-------------------------------------------------------|
B|-------------------------------------------------------|
G|---------------------------------4-6-9-4-4-6-9-4-6-9-4-|
D|-4-4-4-4-4-4-4-4-7-7-7-7-7-7-7-7-4-6-8-4-4-6-9-4-6-9-4-|
A|-4-4-4-4-4-4-4-4-7-7-7-7-7-7-7-7-2-4-7-2-2-4-7-2-4-7-2-|
E|-2-2-2-2-2-2-2-2-5-5-5-5-5-5-5-5-----------------------|
OUTRO:
e|-------------------------|
B|-------------------------|
G|-----4-4-4-4-------------|
D|-2-2-4-4-4-4-7-6-7-4-4-4-|
A|-2-2-2-2-2-2-7-6-7-4-4-4-|
E|-0-0---------5-4-5-2-2-2-|


© Авторские права на тексты, песни, видео и другую представленную информацию принадлежат правообладателям. Аккорды, табы, gtp и тексты песен взяты из открытых источников.
Возрастная категория сайта: 18+
Тексты некоторых песен могут содержать нецензурные выражения, брань.
© 2020 guitar-chords.ru