#табулатура

    
Hell Yeah

REFRAIN:    
G|--------|---------|
D|--------|--4----7-|
A|--55--55|22-2-55-5|
E|33--33--|---------|
play this 4 times

VERS:        
G|--------|--------|--------|---------|---------|---------|
A|--------|--------|--------|--4----7-|---------|--4----7-|
D|--------|22225555|--55--55|22-2-55-5|--55-- 55|22-2-55-5|
E|33333333|--------|33--33--|---------|-33--33--|---------|

G|--------|---------|--------|--------|--------|--------|
D|--------|--4----7-|--------|--------|--------|--------|
A|--55--55|22-2-55-5|--------|22225555|--------|22225555|
E|33--33--|---------|33333333|--------|33333333|--------|

G|--------|--------|--------|---------|
D|--------|--------|--------|---------|
A|--------|22225555|--------|25-------|
E|33333333|--------|33333333|---------|

then the Refrain
and then again the Vers
and then again the Refrain

BRIDGE:        
G|--------|--------|--------|--------|--------|--------|
D|--------|--------|--------|--------|--------|--------|
A|33333333|33333333|--------|--------|00000000|00000000|
E|--------|--------|33333333|33333333|--------|--------|

G|--------|--------|--------|--------|--------|--------|
D|--------|--------|--------|--------|--------|--------|
A|--------|--------|33333333|33333333|--------|--------|
E|00000000|00000000|--------|--------|33333333|33333333|

G|--------|--------|--------|--------|
D|--------|--------|--------|--------|
A|00000000|00000000|--------|--------|
E|--------|--------|00000000|0-------|
play this 2 times

ENDING:        
G|------------------------------------------------------------
D|------------------------------------------------------------
A|3-33-2-3-33-2-3-33-5-7-10-10-10-9-10-10-10-9-10-10-10-12-14-
E|------------------------------------------------------------

G|-----------------------------------------------|
D|-----------------------------------------------|
A|------------------------7-77-5-3-33-2-00-------|
E|-5-55-4-5-55-4-5-55-7-9------------------3-1-0-|
play this 3 times

© Авторские права на тексты, песни, видео и другую представленную информацию принадлежат правообладателям. Аккорды, табы, gtp и тексты песен взяты из открытых источников.
Возрастная категория сайта: 18+
Тексты некоторых песен могут содержать нецензурные выражения, брань.
© 2020 guitar-chords.ru