I Wish I Was Queer So I Could Get Chicks

I didn't tab every note, but you'll know howmany times
to play each note and when to swich.  That word "too"
is right when the guitar and bass go to the E.
   A  B C#            A B C# C# B  A B   E   C# A B 
VERSE      (fast riff) ...monster trucks too...
G|-----------------------------------------------------
D|------------2--------------------------2-1-----------
A|--0-2-4---4---0h2---0-2-4--4-2-0--0-2-------4-0-2----
E|-----------------------------------------------------
CHORUS Chicks dig guys...
G|---------------------------
D|--2-2------1-2-2-----------
A|------2-2---------2-2-1-0--
E|---------------------------
VERSE 2(no vocals, slightly different)
    E      C#    (B) A       B   A    E 
G|----------------------------------------
D|--2-2h4----------------------------1-2-- } repeat
A|---------4-4--4-2-0--0-0-0--2-2--4------
E|----------------------------------------
CHORUS 2
G|-------------------------------------
D|-----------------2-------------------
A|--4-4--2-2--4-4----2--4-4--2-2--4-4--
E|-------------------------------------
END  repeat many times
G|-------------|---------------------
D|--------4-2--|---------------------
A|--2-4-4------|--0-2-4--(very end)--
E|-------------|---------------------

© Авторские права на тексты, песни, видео и другую представленную информацию принадлежат правообладателям. Аккорды, табы, gtp и тексты песен взяты из открытых источников.
Возрастная категория сайта: 18+
Тексты некоторых песен могут содержать нецензурные выражения, брань.
© 2020 guitar-chords.ru