"Hooray For Boobies"
I hope you die

Intro:
Guitar1
|-------------------------|
|-------------------------|
|-3-33--------------------|
|-3-33--4-44--3-33--6-66--|
|-1-11--4-44--4-44--6-66--|
|-------2-22--------4-44--|
Guitar2
|--------------------------------------------------------|
|--------------------------------------------------------|
|--------------------------------------------------------|
|-------3-------3------4------4-------3--3--------6-----6|
|-1-1-1----1-1------------------4-4-4---4----------------|
|-----------------2-2-2---2-2---------------4-4-4---4-4--|

Pre-Verse:
|-----------------------------------------|
|-----------------------------------------|
|-33333333--------------------------------|
|-33333333--44444444--33333333- 66666666--|
|-11111111--44444444--44444444--66666666--|
|-----------22222222------------44444444--|

|-----------------------------------------|
|-----------------------------------------|
|--3--3-5-6--6-8-10--10-11-13-------------|
|-----------------------------------------|
|-----------------------------------------|
|-----------------------------------------|

Verse:
(muted)
|-----------------------------------------|
|-----------------------------------------|
|-33333333--------------------------------|
|-33333333--44444444--33333333- 66666666--|
|-11111111--44444444--44444444--66666666--|
|-----------22222222------------44444444--|

pre-chorus:
|---------------------------------------------------------|
|---------------------------------------------------------|
|---------------------10-10--10-11-10-8-10-10--10-11-10-8-|
|-33333333--44444444--------------------------------------|
|-33333333--44444444--------------------------------------|
|-11111111--22222222--------------------------------------|

|---------------------------------------------------------|
|---------------------------------------------------------|
|---------------------10-10--10-11-10-8-10----------------|
|-33333333--44444444--------------------------------------|
|-33333333--44444444--------------------------------------|
|-11111111--22222222--------------------------------------|

© Авторские права на тексты, песни, видео и другую представленную информацию принадлежат правообладателям. Аккорды, табы, gtp и тексты песен взяты из открытых источников.
Возрастная категория сайта: 18+
Тексты некоторых песен могут содержать нецензурные выражения, брань.
© 2020 guitar-chords.ru