Kids in America

 = play note 8 times

riff 1
G|----------------------------|
D|----------------------------|
A|-------------------------5-|
E|-5-5-5-5-3-3-1-3----|

(ending 1)        (ending 2)
G|-----------------|-------|
D|-----------------|-------|
A|-5-5-5-5---------|-5-7-|
E|---------0-3-5-5-|-------|

riff 2 (i dont think this is right)
G|-------------------------------|
D|*-----------------------------*|
A|*-------------3-3-5-5-7-7-9-9-*|
E|--3-3-5-5-7-7------------------|

G|-----------------------------------|
D|-----------------------------------|
A|-----------------------------------|
E|-3-3-5-5-7-7-9-9-5-5-7-7-9-9-11-11-|

riff 3
G|----------------------------------|
D|*--------------------------------*|
A|*------3-3-3--3-3----------------*|
E|--5--5------------3--3-1-1-1--1-1-|

I've figured out the ending but I'm not
gonna post it until i figure out all
the little bass fills.

© Авторские права на тексты, песни, видео и другую представленную информацию принадлежат правообладателям. Аккорды, табы, gtp и тексты песен взяты из открытых источников.
Возрастная категория сайта: 18+
Тексты некоторых песен могут содержать нецензурные выражения, брань.
© 2020 guitar-chords.ru