Kiss Me Where It Smells Funny

Drum Intro
G||------------------|------------------|------------------|
D||------------------|------------------|------------------|
A||------------------|------------------|------------------|
E||------------------|------------------|------------------|

--------------------|--------------------------|
--------------------|--------------------------|
--------------------|-----0--1--2-----0--1--2--|
----------3----3----|--0-----------0-----------|

--------------------------|--------------------------|
--------------0-----------|--------------------------|
-----0--1--2-----2--1--0--|-----0--1--2-----0--1--2--|
--0-----------------------|--0-----------0-----------|

--------------------------|--------------------------|
--------------0-----------|--------------------------|
-----0--1--2-----2--1--0--|-----0--1--2-----0--1--2--|
--0-----------------------|--0-----------0-----------|

--------------------------|--------------------------|
--------------0-----------|--------------------------|
-----0--1--2-----2--1--0--|-----0--1--2-----0--1--2--|
--0-----------------------|--0-----------0-----------|

--------------------------|--------------------------|
--------------0-----------|--------------------------|
-----0--1--2-----2--1--0--|--------------------------|
--0-----------------------|--0--0--0--0--0--0--0--0--|

------------------------|----------------------------|
------------------------|----------------------------|
------------------------|----------------------------|
--0--0--0--0--3----3----|--0--0--0--0-0-0--0--0--0-0-|

-------------------------|--------------------------|
-------------------------|--------------------------|
-------------------------|--------------------------|
--0--0--0--0-0-3----3----|--0--0--0--0--0--0--0--0--|

------------------------|----------------------------|
------------------------|----------------------------|
------------------------|----------------------------|
--0--0--0--0--3----3----|--0--0--0--0-0-0--0--0--0-0-|

-------------------------|--------------------------|
-------------------------|--------------------------|
-------------------------|--------------------------|
--0--0--0--0-0-3----3----|--0--0--0--0--0--0--0--0--|

------------------------|--------------------------|
------------------------|--------------------------|
------------------------|--0--0--0--0--0--0--0--0--|
--0--0--0--0--3----3----|--------------------------|

------------------------|--------------------------|
------------------------|--------------------------|
--0--0--0--0-------2----|--0--0--0--0--0--0--0--0--|
--------------3---------|--------------------------|

------------------------|--------------------------|
------------------------|--------------------------|
--0--0--2----0----------|--------------------------|
----------------3--2----|--0--0--0--0--0--0--0--0--|

------------------------|--------------------------|
------------------------|--------------------------|
------------------------|--------------------------|
--0--0--0--0--3----3----|--0--0--0--0--0--0--0--0--|

------------------------|--------------------------|
------------------------|--------------------------|
-------------------2----|--0--0--0--0--0--0--0--0--|
--0--0--0--0--3---------|--------------------------|

------------------------|--------------------------|
------------------------|--------------------------|
--0--0--0--0-------2----|--0--0--0--0--0--0--0--0--|
--------------3---------|--------------------------|

------------------------|--------------------------|
------------------------|--------------------------|
--0--0--2----0----------|--------------------------|
----------------3--2----|--0--0--0--0--0--0--0--0--|

-----------------------|--------------------------|
-----------------------|--------------------------|
-----------------------|-----0--1--2-----0--1--2--|
--0--0--0--0--0--------|--0-----------0-----------|

--------------------------|--------------------------|
--------------0-----------|--------------------------|
-----0--1--2-----2--1--0--|-----0--1--2-----0--1--2--|
--0-----------------------|--0-----------0-----------|

--------------------------|--------------------------|
--------------0-----------|--------------------------|
-----0--1--2-----2--1--0--|-----0--1--2-----0--1--2--|
--0-----------------------|--0-----------0-----------|

--------------------------|--------------------------|
--------------0-----------|--------------------------|
-----0--1--2-----2--1--0--|-----0--1--2-----0--1--2--|
--0-----------------------|--0-----------0-----------|

--------------------------|--------------------------|
--------------0-----------|--------------------------|
-----0--1--2-----2--1--0--|--------------------------|
--0-----------------------|--0--0--0--0--0--0--0--0--|

------------------------|----------------------------|
------------------------|----------------------------|
------------------------|----------------------------|
--0--0--0--0--3----3----|--0--0--0--0-0-0--0--0--0-0-|

-------------------------|--------------------------|
-------------------------|--------------------------|
-------------------------|--------------------------|
--0--0--0--0-0-3----3----|--0--0--0--0--0--0--0--0--|

------------------------|----------------------------|
------------------------|----------------------------|
------------------------|----------------------------|
--0--0--0--0--3----3----|--0--0--0--0-0-0--0--0--0-0-|

-------------------------|--------------------------|
-------------------------|--------------------------|
-------------------------|--------------------------|
--0--0--0--0-0-3----3----|--0--0--0--0--0--0--0--0--|

------------------------|--------------------------|
------------------------|--------------------------|
-------------------2----|--0--0--0--0--0--0--0--0--|
--0--0--0--0--3---------|--------------------------|

------------------------|--------------------------|
------------------------|--------------------------|
--0--0--0--0-------2----|--0--0--0--0--0--0--0--0--|
--------------3---------|--------------------------|

------------------------|--------------------------|
------------------------|--------------------------|
--0--0--2----0----------|--------------------------|
----------------3--2----|--0--0--0--0--0--0--0--0--|

------------------------|--------------------------|
------------------------|--------------------------|
------------------------|--------------------------|
--0--0--0--0--3----3----|--0--0--0--0--0--0--0--0--|

------------------------|--------------------------|
------------------------|--------------------------|
-------------------2----|--0--0--0--0--0--0--0--0--|
--0--0--0--0--3---------|--------------------------|

------------------------|--------------------------|
------------------------|--------------------------|
--0--0--0--0-------2----|--0--0--0--0--0--0--0--0--|
--------------3---------|--------------------------|

------------------------|--------------------------|
------------------------|--------------------------|
--0--0--2----0----------|--------------------------|
----------------3--2----|--0--0--0--0--0--0--0--0--|

-----------------------|--------------------------|
-----------------------|--------------------------|
-----------------------|-----0--1--2-----0--1--2--|
--0--0--0--0--0--------|--0-----------0-----------|

--------------------------|--------------------------|
--------------0-----------|--------------------------|
-----0--1--2-----2--1--0--|-----0--1--2-----0--1--2--|
--0-----------------------|--0-----------0-----------|

--------------------------|--------------------------|
--------------0-----------|--------------------------|
-----0--1--2-----2--1--0--|-----0--1--2-----0--1--2--|
--0-----------------------|--0-----------0-----------|

--------------------------|--------------------------|
--------------0-----------|--------------------------|
-----0--1--2-----2--1--0--|-----0--1--2-----0--1--2--|
--0-----------------------|--0-----------0-----------|

--------------------------|---------------------|
--------------0-----------|---------------------|
-----0--1--2-----2--1--0--|---------------------|
--0-----------------------|--0--0------------0--|

---------------------|---------------------|-------------------------|
---------------------|---------------------|-----------0-------------|
---------------------|--0--0------------0--|--2--2--2-------2--0-----|
--3--3------------3--|---------------------|----------------------3--|

---------------------|---------------------|---------------------|
---------------------|---------------------|---------------------|
---------------------|---------------------|--0--0------------0--|
--0--0------------0--|--3--3------------3--|---------------------|

-------------------------|---------------------|---------------------|
-----------0-------------|---------------------|---------------------|
--2--2--2-------2--0-----|---------------------|---------------------|
----------------------3--|--0--0------------0--|--3--3------------3--|

---------------------|-------------------------|---------------------|
---------------------|-----------0-------------|---------------------|
--0--0------------0--|--2--2--2-------2--0-----|---------------------|
---------------------|----------------------3--|--0--0------------0--|

---------------------|---------------------|-------------------------|
---------------------|---------------------|-----------0-------------|
---------------------|--0--0------------0--|--2--2--2-------2--0-----|
--3--3------------3--|---------------------|----------------------3--|

---------------------|---------------------|---------------------|
---------------------|---------------------|---------------------|
---------------------|---------------------|--0--0------------0--|
--0--0------------0--|--3--3------------3--|---------------------|

-------------------------|---------------------|---------------------|
-----------0-------------|---------------------|---------------------|
--2--2--2-------2--0-----|---------------------|---------------------|
----------------------3--|--0--0------------0--|--3--3------------3--|

---------------------|-------------------------|---------------------|
---------------------|-----------0-------------|---------------------|
--0--0------------0--|--2--2--2-------2--0-----|---------------------|
---------------------|----------------------3--|--0--0------------0--|

---------------------|---------------------|-------------------------|
---------------------|---------------------|-----------0-------------|
---------------------|--0--0------------0--|--2--2--2-------2--0-----|
--3--3------------3--|---------------------|----------------------3--|

---------------------|---------------------|---------------------|
---------------------|---------------------|---------------------|
---------------------|---------------------|--0--0------------0--|
--0--0------------0--|--3--3------------3--|---------------------|

-------------------|--------------------------|
-------------------|--------------------------|
--2----------------|-----0--1--2-----0--1--2--|
-------------------|--0-----------0-----------|

--------------------------|--------------------------|
--------------0-----------|--------------------------|
-----0--1--2-----2--1--0--|-----0--1--2-----0--1--2--|
--0-----------------------|--0-----------0-----------|

--------------------------|--------------------------|
--------------0-----------|--------------------------|
-----0--1--2-----2--1--0--|-----0--1--2-----0--1--2--|
--0-----------------------|--0-----------0-----------|

--------------------------|--------------------------|
--------------0-----------|--------------------------|
-----0--1--2-----2--1--0--|-----0--1--2-----0--1--2--|
--0-----------------------|--0-----------0-----------|

--------------------------|--------------------------|
--------------0-----------|--------------------------|
-----0--1--2-----2--1--0--|-----0--1--2-----0--1--2--|
--0-----------------------|--0-----------0-----------|

--------------------------|--------------------------|
--------------0-----------|--------------------------|
-----0--1--2-----2--1--0--|-----0--1--2-----0--1--2--|
--0-----------------------|--0-----------0-----------|

--------------------------|--------------------------|
--------------0-----------|--------------------------|
-----0--1--2-----2--1--0--|-----0--1--2-----0--1--2--|
--0-----------------------|--0-----------0-----------|

--------------------------|--------------------------|
--------------0-----------|--------------------------|
-----0--1--2-----2--1--0--|-----0--1--2-----0--1--2--|
--0-----------------------|--0-----------0-----------|

--------------------------|-------------------||
--------------0-----------|-------------------||
-----0--1--2-----2--1--0--|-------------------||
--0-----------------------|--0----------------||

© Авторские права на тексты, песни, видео и другую представленную информацию принадлежат правообладателям. Аккорды, табы, gtp и тексты песен взяты из открытых источников.
Возрастная категория сайта: 18+
Тексты некоторых песен могут содержать нецензурные выражения, брань.
© 2020 guitar-chords.ru