Yummy Down On This

NOTE: As far as I know this song only consists of 2 chords (D and A), but
I've just got the snippet version from the tape they spread on their tour
Tune down the low E string to D
INTRO:
e|--------------------------------------------|
B|--------------------------------------------|
G|--------------------------------------------|
D|-5--0-0-0---0-0-0-0-0---0-0-0-0---0-0-0-0-0-|
A|-5--0-0-0---0-0-0-0-0---0-0-0-0---0-0-0-0-0-|
D|-5--0-0-0---0-0-0-0-0---0-0-0-0---0-0-0-0-0-|
VERSE: (same as INTRO)
CHORUS:
e|-----------------------------|
B|-----------------------------|
G|-----------------------------|
D|-0-0---0-0-0---0-0-0---0-0-0-|
A|-0-0---0-0-0---0-0-0---0-0-0-|
D|-0-0---0-0-0---0-0-0---0-0-0-|
SONG PROGRESSION:
4 x INTRO
4 x CHORUS (palm muted)
8 x VERSE
4 x CHORUS
4 x CHORUS (this is the part where he's about to throw up)
4 x CHORUS ("Suck it, suck it")

© Авторские права на тексты, песни, видео и другую представленную информацию принадлежат правообладателям. Аккорды, табы, gtp и тексты песен взяты из открытых источников.
Возрастная категория сайта: 18+
Тексты некоторых песен могут содержать нецензурные выражения, брань.
© 2020 guitar-chords.ru