1995 - The Great Escape
Globe Alone

Two words:PURE ADRENALINE!!! I hope someone realizes
how good this song is and releases it as a single!!!

Intro/verse:    G -66-XX-44-XX-66------------
D -66-XX-44-XX-66-444444444--
A -44-XX-22-XX-44-444444444--
E ----------------222222222--

Pre-chorus:    G -6-6-3-3-8-8-4-4--6-6-3-3-8-8-4-4--66-33-88-44--
D -6-6-3-3-8-8-4-4--6-6-3-3-8-8-4-4--66-33-88-44--
A -4-4-1-1-6-6-2-2--4-4-1-1-6-6-2-2--44-11-66-22--
E ------------------------------------------------

Chorus:        
G -6-6-3-3-------------------
D -6-6-3-3-4444444444444444--
A -4-4-1-1-4444444444444444--
E ---------2222222222222222--

Middle:        
G -2-----7--3--8--------
D -2--6--7--3--8--7--6--
A -0--6--5--1--6--7--6--
E ----4-----------5--4--

repeat intro/verse 2x (under solo) then middle again


© Авторские права на тексты, песни, видео и другую представленную информацию принадлежат правообладателям. Аккорды, табы, gtp и тексты песен взяты из открытых источников.
Возрастная категория сайта: 18+
Тексты некоторых песен могут содержать нецензурные выражения, брань.
© 2020 guitar-chords.ru